ISO-10303-21;
HEADER;
FILE_DESCRIPTION (( 'STEP AP203' ),
    '1' );
FILE_NAME ('Web Model 43974_43974.step',
    '2017-03-01T20:48:21',
    ( '' ),
    ( '' ),
    'SwSTEP 2.0',
    'SolidWorks 2016',
    '' );
FILE_SCHEMA (( 'CONFIG_CONTROL_DESIGN' ));
ENDSEC;

DATA;
#1 = CARTESIAN_POINT ( 'NONE',  ( -127.0000000000000000, 101.5500000000000000, 0.0000000000000000000 ) ) ;
#2 = ADVANCED_BREP_SHAPE_REPRESENTATION ( 'Web Model 43974_43974', ( #106, #115 ), #64 ) ;
#3 = APPROVAL_STATUS ( 'not_yet_approved' ) ;
#4 = LOCAL_TIME ( 15, 48, 21.00000000000000000, #19 ) ;
#5 = CARTESIAN_POINT ( 'NONE',  ( -127.0000000000000000, 101.5500000000000000, 3.000000000000000000 ) ) ;
#6 = PERSON_AND_ORGANIZATION_ROLE ( 'design_owner' ) ;
#7 = DIRECTION ( 'NONE',  ( -1.366596534496746600E-016, 1.000000000000000000, -0.0000000000000000000 ) ) ;
#8 = FACE_OUTER_BOUND ( 'NONE', #194, .T. ) ;
#9 = AXIS2_PLACEMENT_3D ( 'NONE', #199, #160, #232 ) ;
#10 = CARTESIAN_POINT ( 'NONE',  ( -126.9999999999999400, -101.5500000000000000, 3.000000000000000000 ) ) ;
#11 = ORIENTED_EDGE ( 'NONE', *, *, #83, .F. ) ;
#12 = DIRECTION ( 'NONE',  ( 1.366596534496746600E-016, -1.000000000000000000, 0.0000000000000000000 ) ) ;
#13 = CC_DESIGN_APPROVAL ( #168, ( #178 ) ) ;
#14 = LINE ( 'NONE', #140, #149 ) ;
#15 = ORIENTED_EDGE ( 'NONE', *, *, #148, .T. ) ;
#16 = ORIENTED_EDGE ( 'NONE', *, *, #183, .T. ) ;
#17 = FACE_OUTER_BOUND ( 'NONE', #119, .T. ) ;
#18 = CARTESIAN_POINT ( 'NONE',  ( 127.0000000000000000, 101.5499999999999700, 3.000000000000000000 ) ) ;
#19 = COORDINATED_UNIVERSAL_TIME_OFFSET ( 5, 0, .BEHIND. ) ;
#20 = EDGE_LOOP ( 'NONE', ( #113, #25, #181, #11 ) ) ;
#21 = CARTESIAN_POINT ( 'NONE',  ( -126.9999999999999400, -101.5500000000000000, 3.000000000000000000 ) ) ;
#22 = CC_DESIGN_PERSON_AND_ORGANIZATION_ASSIGNMENT ( #208, #150, ( #57 ) ) ;
#23 = CARTESIAN_POINT ( 'NONE',  ( -127.0000000000000000, 101.5500000000000000, 0.0000000000000000000 ) ) ;
#24 = ADVANCED_FACE ( 'NONE', ( #79 ), #146, .F. ) ;
#25 = ORIENTED_EDGE ( 'NONE', *, *, #49, .F. ) ;
#26 = LINE ( 'NONE', #98, #210 ) ;
#27 = VERTEX_POINT ( 'NONE', #60 ) ;
#28 = CARTESIAN_POINT ( 'NONE',  ( -126.9999999999999400, -101.5500000000000000, 3.000000000000000000 ) ) ;
#29 = FACE_OUTER_BOUND ( 'NONE', #59, .T. ) ;
#30 = PLANE ( 'NONE',  #9 ) ;
#31 = DIRECTION ( 'NONE',  ( 1.000000000000000000, 2.185478394931410600E-016, 0.0000000000000000000 ) ) ;
#32 = APPROVAL_STATUS ( 'not_yet_approved' ) ;
#33 = ORGANIZATION ( 'UNSPECIFIED', 'UNSPECIFIED', '' ) ;
#34 = PRODUCT_RELATED_PRODUCT_CATEGORY ( 'detail', '', ( #191 ) ) ;
#35 = PERSON_AND_ORGANIZATION_ROLE ( 'design_supplier' ) ;
#36 = CC_DESIGN_DATE_AND_TIME_ASSIGNMENT ( #184, #170, ( #178 ) ) ;
#37 = APPROVAL_PERSON_ORGANIZATION ( #112, #104, #52 ) ;
#38 = ORIENTED_EDGE ( 'NONE', *, *, #66, .F. ) ;
#39 = APPROVAL_PERSON_ORGANIZATION ( #69, #143, #42 ) ;
#40 = PRODUCT_DEFINITION_FORMATION_WITH_SPECIFIED_SOURCE ( 'ANY', '', #191, .NOT_KNOWN. ) ;
#41 = CARTESIAN_POINT ( 'NONE',  ( 127.0000000000000000, 101.5499999999999700, 0.0000000000000000000 ) ) ;
#42 = APPROVAL_ROLE ( '' ) ;
#43 = ORIENTED_EDGE ( 'NONE', *, *, #148, .F. ) ;
#44 = CARTESIAN_POINT ( 'NONE',  ( 127.0000000000000300, -101.5499999999999400, 0.0000000000000000000 ) ) ;
#45 = DESIGN_CONTEXT ( 'detailed design', #128, 'design' ) ;
#46 = ADVANCED_FACE ( 'NONE', ( #53 ), #204, .T. ) ;
#47 = ORIENTED_EDGE ( 'NONE', *, *, #190, .T. ) ;
#48 = LINE ( 'NONE', #107, #163 ) ;
#49 = EDGE_CURVE ( 'NONE', #130, #95, #225, .T. ) ;
#50 = VECTOR ( 'NONE', #31, 1000.000000000000000 ) ;
#51 = APPROVAL_ROLE ( '' ) ;
#52 = APPROVAL_ROLE ( '' ) ;
#53 = FACE_OUTER_BOUND ( 'NONE', #219, .T. ) ;
#54 = DIRECTION ( 'NONE',  ( -0.0000000000000000000, -0.0000000000000000000, -1.000000000000000000 ) ) ;
#55 = VECTOR ( 'NONE', #73, 1000.000000000000000 ) ;
#56 = CARTESIAN_POINT ( 'NONE',  ( -127.0000000000000000, 101.5500000000000000, 3.000000000000000000 ) ) ;
#57 = PRODUCT_DEFINITION ( 'UNKNOWN', '', #40, #45 ) ;
#58 = APPLICATION_PROTOCOL_DEFINITION ( 'international standard', 'config_control_design', 1994, #128 ) ;
#59 = EDGE_LOOP ( 'NONE', ( #159, #125, #209, #152 ) ) ;
#60 = CARTESIAN_POINT ( 'NONE',  ( -126.9999999999999400, -101.5500000000000000, 0.0000000000000000000 ) ) ;
#61 = ADVANCED_FACE ( 'NONE', ( #8 ), #75, .F. ) ;
#62 = DIRECTION ( 'NONE',  ( -1.000000000000000000, 1.092739197465705300E-016, -0.0000000000000000000 ) ) ;
#63 = CLOSED_SHELL ( 'NONE', ( #177, #110, #61, #90, #46, #24 ) ) ;
#64 =( GEOMETRIC_REPRESENTATION_CONTEXT ( 3 ) GLOBAL_UNCERTAINTY_ASSIGNED_CONTEXT ( ( #201 ) ) GLOBAL_UNIT_ASSIGNED_CONTEXT ( ( #198, #102, #65 ) ) REPRESENTATION_CONTEXT ( 'NONE', 'WORKASPACE' ) );
#65 =( NAMED_UNIT ( * ) SI_UNIT ( $, .STERADIAN. ) SOLID_ANGLE_UNIT ( ) );
#66 = EDGE_CURVE ( 'NONE', #134, #130, #202, .T. ) ;
#67 = ORIENTED_EDGE ( 'NONE', *, *, #117, .F. ) ;
#68 = CARTESIAN_POINT ( 'NONE',  ( 127.0000000000000300, -101.5499999999999400, 3.000000000000000000 ) ) ;
#69 = PERSON_AND_ORGANIZATION ( #161, #33 ) ;
#70 = LOCAL_TIME ( 15, 48, 21.00000000000000000, #74 ) ;
#71 = COORDINATED_UNIVERSAL_TIME_OFFSET ( 5, 0, .BEHIND. ) ;
#72 = PERSON_AND_ORGANIZATION_ROLE ( 'creator' ) ;
#73 = DIRECTION ( 'NONE',  ( 2.733193068993492300E-016, -1.000000000000000000, 0.0000000000000000000 ) ) ;
#74 = COORDINATED_UNIVERSAL_TIME_OFFSET ( 5, 0, .BEHIND. ) ;
#75 = PLANE ( 'NONE',  #172 ) ;
#76 = CALENDAR_DATE ( 2017, 1, 3 ) ;
#77 = LINE ( 'NONE', #10, #94 ) ;
#78 = VECTOR ( 'NONE', #217, 1000.000000000000000 ) ;
#79 = FACE_OUTER_BOUND ( 'NONE', #20, .T. ) ;
#80 = DIRECTION ( 'NONE',  ( -0.0000000000000000000, 0.0000000000000000000, 1.000000000000000000 ) ) ;
#81 = DATE_AND_TIME ( #142, #164 ) ;
#82 = CALENDAR_DATE ( 2017, 1, 3 ) ;
#83 = EDGE_CURVE ( 'NONE', #27, #212, #48, .T. ) ;
#84 = ORIENTED_EDGE ( 'NONE', *, *, #101, .T. ) ;
#85 = ORIENTED_EDGE ( 'NONE', *, *, #49, .T. ) ;
#86 = ORIENTED_EDGE ( 'NONE', *, *, #183, .F. ) ;
#87 = DIRECTION ( 'NONE',  ( -0.0000000000000000000, -0.0000000000000000000, -1.000000000000000000 ) ) ;
#88 = SECURITY_CLASSIFICATION_LEVEL ( 'unclassified' ) ;
#89 = VECTOR ( 'NONE', #116, 1000.000000000000000 ) ;
#90 = ADVANCED_FACE ( 'NONE', ( #141 ), #30, .F. ) ;
#91 = CARTESIAN_POINT ( 'NONE',  ( -127.0000000000000000, 101.5500000000000000, 0.0000000000000000000 ) ) ;
#92 = DIRECTION ( 'NONE',  ( -2.185478394931410300E-016, 1.000000000000000000, 0.0000000000000000000 ) ) ;
#93 = LINE ( 'NONE', #131, #165 ) ;
#94 = VECTOR ( 'NONE', #180, 1000.000000000000000 ) ;
#95 = VERTEX_POINT ( 'NONE', #1 ) ;
#96 = CARTESIAN_POINT ( 'NONE',  ( 0.0000000000000000000, 0.0000000000000000000, 0.0000000000000000000 ) ) ;
#97 = ORIENTED_EDGE ( 'NONE', *, *, #122, .F. ) ;
#98 = CARTESIAN_POINT ( 'NONE',  ( -127.0000000000000000, 101.5500000000000000, 3.000000000000000000 ) ) ;
#99 = LINE ( 'NONE', #21, #50 ) ;
#100 = ORIENTED_EDGE ( 'NONE', *, *, #66, .T. ) ;
#101 = EDGE_CURVE ( 'NONE', #187, #166, #99, .T. ) ;
#102 =( NAMED_UNIT ( * ) PLANE_ANGLE_UNIT ( ) SI_UNIT ( $, .RADIAN. ) );
#103 = PRODUCT_DEFINITION_SHAPE ( 'NONE', 'NONE',  #57 ) ;
#104 = APPROVAL ( #32, 'UNSPECIFIED' ) ;
#105 = VECTOR ( 'NONE', #87, 1000.000000000000000 ) ;
#106 = MANIFOLD_SOLID_BREP ( 'Boss-Extrude1', #63 ) ;
#107 = CARTESIAN_POINT ( 'NONE',  ( -126.9999999999999400, -101.5500000000000000, 0.0000000000000000000 ) ) ;
#108 = LINE ( 'NONE', #91, #55 ) ;
#109 = SHAPE_DEFINITION_REPRESENTATION ( #103, #2 ) ;
#110 = ADVANCED_FACE ( 'NONE', ( #29 ), #214, .F. ) ;
#111 = ORIENTED_EDGE ( 'NONE', *, *, #126, .T. ) ;
#112 = PERSON_AND_ORGANIZATION ( #161, #33 ) ;
#113 = ORIENTED_EDGE ( 'NONE', *, *, #190, .F. ) ;
#114 = DATE_AND_TIME ( #76, #70 ) ;
#115 = AXIS2_PLACEMENT_3D ( 'NONE', #96, #193, #174 ) ;
#116 = DIRECTION ( 'NONE',  ( -0.0000000000000000000, -0.0000000000000000000, -1.000000000000000000 ) ) ;
#117 = EDGE_CURVE ( 'NONE', #166, #134, #93, .T. ) ;
#118 = LINE ( 'NONE', #5, #105 ) ;
#119 = EDGE_LOOP ( 'NONE', ( #47, #97, #86, #15 ) ) ;
#120 = DIRECTION ( 'NONE',  ( 2.733193068993492300E-016, -1.000000000000000000, 0.0000000000000000000 ) ) ;
#121 = PERSON_AND_ORGANIZATION ( #161, #33 ) ;
#122 = EDGE_CURVE ( 'NONE', #187, #27, #77, .T. ) ;
#123 = DIRECTION ( 'NONE',  ( -2.733193068993492300E-016, 1.000000000000000000, 0.0000000000000000000 ) ) ;
#124 = APPROVAL_DATE_TIME ( #81, #104 ) ;
#125 = ORIENTED_EDGE ( 'NONE', *, *, #196, .F. ) ;
#126 = EDGE_CURVE ( 'NONE', #134, #147, #26, .T. ) ;
#127 = CALENDAR_DATE ( 2017, 1, 3 ) ;
#128 = APPLICATION_CONTEXT ( 'configuration controlled 3d designs of mechanical parts and assemblies' ) ;
#129 = CC_DESIGN_PERSON_AND_ORGANIZATION_ASSIGNMENT ( #227, #6, ( #191 ) ) ;
#130 = VERTEX_POINT ( 'NONE', #41 ) ;
#131 = CARTESIAN_POINT ( 'NONE',  ( 127.0000000000000000, 101.5499999999999700, 3.000000000000000000 ) ) ;
#132 = DIRECTION ( 'NONE',  ( -1.000000000000000000, -1.366596534496746600E-016, 0.0000000000000000000 ) ) ;
#133 = CC_DESIGN_APPROVAL ( #104, ( #57 ) ) ;
#134 = VERTEX_POINT ( 'NONE', #136 ) ;
#135 = APPROVAL_DATE_TIME ( #114, #143 ) ;
#136 = CARTESIAN_POINT ( 'NONE',  ( 127.0000000000000000, 101.5499999999999700, 3.000000000000000000 ) ) ;
#137 = PERSON_AND_ORGANIZATION ( #161, #33 ) ;
#138 = CC_DESIGN_PERSON_AND_ORGANIZATION_ASSIGNMENT ( #121, #72, ( #40 ) ) ;
#139 = CARTESIAN_POINT ( 'NONE',  ( 0.0000000000000000000, 0.0000000000000000000, 3.000000000000000000 ) ) ;
#140 = CARTESIAN_POINT ( 'NONE',  ( -127.0000000000000000, 101.5500000000000000, 3.000000000000000000 ) ) ;
#141 = FACE_OUTER_BOUND ( 'NONE', #197, .T. ) ;
#142 = CALENDAR_DATE ( 2017, 1, 3 ) ;
#143 = APPROVAL ( #3, 'UNSPECIFIED' ) ;
#144 = AXIS2_PLACEMENT_3D ( 'NONE', #145, #203, #176 ) ;
#145 = CARTESIAN_POINT ( 'NONE',  ( 0.0000000000000000000, 0.0000000000000000000, 0.0000000000000000000 ) ) ;
#146 = PLANE ( 'NONE',  #144 ) ;
#147 = VERTEX_POINT ( 'NONE', #56 ) ;
#148 = EDGE_CURVE ( 'NONE', #147, #95, #118, .T. ) ;
#149 = VECTOR ( 'NONE', #120, 1000.000000000000000 ) ;
#150 = PERSON_AND_ORGANIZATION_ROLE ( 'creator' ) ;
#151 = CC_DESIGN_APPROVAL ( #143, ( #40 ) ) ;
#152 = ORIENTED_EDGE ( 'NONE', *, *, #122, .T. ) ;
#153 = DIRECTION ( 'NONE',  ( 1.000000000000000000, 2.733193068993492300E-016, -0.0000000000000000000 ) ) ;
#154 = PERSON_AND_ORGANIZATION ( #161, #33 ) ;
#155 = CC_DESIGN_SECURITY_CLASSIFICATION ( #178, ( #40 ) ) ;
#156 = CC_DESIGN_PERSON_AND_ORGANIZATION_ASSIGNMENT ( #154, #35, ( #40 ) ) ;
#157 = DIRECTION ( 'NONE',  ( 1.000000000000000000, 2.185478394931410600E-016, 0.0000000000000000000 ) ) ;
#158 = AXIS2_PLACEMENT_3D ( 'NONE', #139, #80, #221 ) ;
#159 = ORIENTED_EDGE ( 'NONE', *, *, #83, .T. ) ;
#160 = DIRECTION ( 'NONE',  ( -1.092739197465705200E-016, -1.000000000000000000, 0.0000000000000000000 ) ) ;
#161 = PERSON ( 'UNSPECIFIED', 'UNSPECIFIED', 'UNSPECIFIED', ('UNSPECIFIED'), ('UNSPECIFIED'), ('UNSPECIFIED') ) ;
#162 = LINE ( 'NONE', #167, #228 ) ;
#163 = VECTOR ( 'NONE', #157, 1000.000000000000000 ) ;
#164 = LOCAL_TIME ( 15, 48, 21.00000000000000000, #71 ) ;
#165 = VECTOR ( 'NONE', #216, 1000.000000000000000 ) ;
#166 = VERTEX_POINT ( 'NONE', #189 ) ;
#167 = CARTESIAN_POINT ( 'NONE',  ( 127.0000000000000000, 101.5499999999999700, 0.0000000000000000000 ) ) ;
#168 = APPROVAL ( #173, 'UNSPECIFIED' ) ;
#169 = LOCAL_TIME ( 15, 48, 21.00000000000000000, #237 ) ;
#170 = DATE_TIME_ROLE ( 'classification_date' ) ;
#171 = MECHANICAL_CONTEXT ( 'NONE', #179, 'mechanical' ) ;
#172 = AXIS2_PLACEMENT_3D ( 'NONE', #18, #132, #12 ) ;
#173 = APPROVAL_STATUS ( 'not_yet_approved' ) ;
#174 = DIRECTION ( 'NONE',  ( 1.000000000000000000, 0.0000000000000000000, 0.0000000000000000000 ) ) ;
#175 = DATE_AND_TIME ( #82, #4 ) ;
#176 = DIRECTION ( 'NONE',  ( 1.000000000000000000, 0.0000000000000000000, 0.0000000000000000000 ) ) ;
#177 = ADVANCED_FACE ( 'NONE', ( #17 ), #195, .F. ) ;
#178 = SECURITY_CLASSIFICATION ( '', '', #88 ) ;
#179 = APPLICATION_CONTEXT ( 'configuration controlled 3d designs of mechanical parts and assemblies' ) ;
#180 = DIRECTION ( 'NONE',  ( -0.0000000000000000000, -0.0000000000000000000, -1.000000000000000000 ) ) ;
#181 = ORIENTED_EDGE ( 'NONE', *, *, #213, .F. ) ;
#182 = LOCAL_TIME ( 15, 48, 21.00000000000000000, #233 ) ;
#183 = EDGE_CURVE ( 'NONE', #147, #187, #14, .T. ) ;
#184 = DATE_AND_TIME ( #188, #182 ) ;
#185 = AXIS2_PLACEMENT_3D ( 'NONE', #186, #153, #123 ) ;
#186 = CARTESIAN_POINT ( 'NONE',  ( -127.0000000000000000, 101.5500000000000000, 3.000000000000000000 ) ) ;
#187 = VERTEX_POINT ( 'NONE', #28 ) ;
#188 = CALENDAR_DATE ( 2017, 1, 3 ) ;
#189 = CARTESIAN_POINT ( 'NONE',  ( 127.0000000000000300, -101.5499999999999400, 3.000000000000000000 ) ) ;
#190 = EDGE_CURVE ( 'NONE', #95, #27, #108, .T. ) ;
#191 = PRODUCT ( 'Web Model 43974_43974', 'Web Model 43974_43974', '', ( #171 ) ) ;
#192 = CC_DESIGN_DATE_AND_TIME_ASSIGNMENT ( #175, #234, ( #57 ) ) ;
#193 = DIRECTION ( 'NONE',  ( 0.0000000000000000000, 0.0000000000000000000, 1.000000000000000000 ) ) ;
#194 = EDGE_LOOP ( 'NONE', ( #200, #38, #67, #229 ) ) ;
#195 = PLANE ( 'NONE',  #185 ) ;
#196 = EDGE_CURVE ( 'NONE', #166, #212, #207, .T. ) ;
#197 = EDGE_LOOP ( 'NONE', ( #85, #43, #206, #100 ) ) ;
#198 =( LENGTH_UNIT ( ) NAMED_UNIT ( * ) SI_UNIT ( .MILLI., .METRE. ) );
#199 = CARTESIAN_POINT ( 'NONE',  ( -127.0000000000000000, 101.5500000000000000, 3.000000000000000000 ) ) ;
#200 = ORIENTED_EDGE ( 'NONE', *, *, #213, .T. ) ;
#201 = UNCERTAINTY_MEASURE_WITH_UNIT (LENGTH_MEASURE( 1.000000000000000100E-005 ), #198, 'distance_accuracy_value', 'NONE');
#202 = LINE ( 'NONE', #231, #230 ) ;
#203 = DIRECTION ( 'NONE',  ( -0.0000000000000000000, 0.0000000000000000000, 1.000000000000000000 ) ) ;
#204 = PLANE ( 'NONE',  #158 ) ;
#205 = APPROVAL_PERSON_ORGANIZATION ( #218, #168, #51 ) ;
#206 = ORIENTED_EDGE ( 'NONE', *, *, #126, .F. ) ;
#207 = LINE ( 'NONE', #68, #89 ) ;
#208 = PERSON_AND_ORGANIZATION ( #161, #33 ) ;
#209 = ORIENTED_EDGE ( 'NONE', *, *, #101, .F. ) ;
#210 = VECTOR ( 'NONE', #62, 1000.000000000000000 ) ;
#211 = CC_DESIGN_PERSON_AND_ORGANIZATION_ASSIGNMENT ( #137, #220, ( #178 ) ) ;
#212 = VERTEX_POINT ( 'NONE', #44 ) ;
#213 = EDGE_CURVE ( 'NONE', #212, #130, #162, .T. ) ;
#214 = PLANE ( 'NONE',  #222 ) ;
#215 = CARTESIAN_POINT ( 'NONE',  ( -126.9999999999999400, -101.5500000000000000, 3.000000000000000000 ) ) ;
#216 = DIRECTION ( 'NONE',  ( -1.366596534496746600E-016, 1.000000000000000000, -0.0000000000000000000 ) ) ;
#217 = DIRECTION ( 'NONE',  ( -1.000000000000000000, 1.092739197465705300E-016, -0.0000000000000000000 ) ) ;
#218 = PERSON_AND_ORGANIZATION ( #161, #33 ) ;
#219 = EDGE_LOOP ( 'NONE', ( #16, #84, #226, #111 ) ) ;
#220 = PERSON_AND_ORGANIZATION_ROLE ( 'classification_officer' ) ;
#221 = DIRECTION ( 'NONE',  ( 1.000000000000000000, 0.0000000000000000000, 0.0000000000000000000 ) ) ;
#222 = AXIS2_PLACEMENT_3D ( 'NONE', #215, #92, #224 ) ;
#223 = APPLICATION_PROTOCOL_DEFINITION ( 'international standard', 'config_control_design', 1994, #179 ) ;
#224 = DIRECTION ( 'NONE',  ( -1.000000000000000000, -2.185478394931410300E-016, 0.0000000000000000000 ) ) ;
#225 = LINE ( 'NONE', #23, #78 ) ;
#226 = ORIENTED_EDGE ( 'NONE', *, *, #117, .T. ) ;
#227 = PERSON_AND_ORGANIZATION ( #161, #33 ) ;
#228 = VECTOR ( 'NONE', #7, 1000.000000000000000 ) ;
#229 = ORIENTED_EDGE ( 'NONE', *, *, #196, .T. ) ;
#230 = VECTOR ( 'NONE', #54, 1000.000000000000000 ) ;
#231 = CARTESIAN_POINT ( 'NONE',  ( 127.0000000000000000, 101.5499999999999700, 3.000000000000000000 ) ) ;
#232 = DIRECTION ( 'NONE',  ( 1.000000000000000000, -1.092739197465705200E-016, 0.0000000000000000000 ) ) ;
#233 = COORDINATED_UNIVERSAL_TIME_OFFSET ( 5, 0, .BEHIND. ) ;
#234 = DATE_TIME_ROLE ( 'creation_date' ) ;
#235 = DATE_AND_TIME ( #127, #169 ) ;
#236 = APPROVAL_DATE_TIME ( #235, #168 ) ;
#237 = COORDINATED_UNIVERSAL_TIME_OFFSET ( 5, 0, .BEHIND. ) ;
ENDSEC;
END-ISO-10303-21;
