ISO-10303-21;
HEADER;
FILE_DESCRIPTION (( 'STEP AP203' ),
    '1' );
FILE_NAME ('Web Model 39291_11929.step',
    '2019-01-23T14:49:10',
    ( '' ),
    ( '' ),
    'SwSTEP 2.0',
    'SolidWorks 2016',
    '' );
FILE_SCHEMA (( 'CONFIG_CONTROL_DESIGN' ));
ENDSEC;

DATA;
#1 = DIRECTION ( 'NONE',  ( -1.000000000000000000, -0.0000000000000000000, -0.0000000000000000000 ) ) ;
#2 = ORIENTED_EDGE ( 'NONE', *, *, #131, .T. ) ;
#3 = CIRCLE ( 'NONE', #166, 37.25000000000000700 ) ;
#4 = COORDINATED_UNIVERSAL_TIME_OFFSET ( 5, 0, .BEHIND. ) ;
#5 = DIRECTION ( 'NONE',  ( 0.7071067811865474600, 8.659560562354932900E-017, 0.7071067811865474600 ) ) ;
#6 = ORIENTED_EDGE ( 'NONE', *, *, #167, .T. ) ;
#7 = APPLICATION_CONTEXT ( 'configuration controlled 3d designs of mechanical parts and assemblies' ) ;
#8 = ADVANCED_FACE ( 'NONE', ( #256 ), #228, .T. ) ;
#9 = FACE_OUTER_BOUND ( 'NONE', #67, .T. ) ;
#10 = DIRECTION ( 'NONE',  ( 0.0000000000000000000, 0.0000000000000000000, -1.000000000000000000 ) ) ;
#11 = PERSON_AND_ORGANIZATION ( #185, #191 ) ;
#12 = EDGE_CURVE ( 'NONE', #208, #74, #57, .T. ) ;
#13 = UNCERTAINTY_MEASURE_WITH_UNIT (LENGTH_MEASURE( 1.000000000000000100E-005 ), #197, 'distance_accuracy_value', 'NONE');
#14 = AXIS2_PLACEMENT_3D ( 'NONE', #112, #75, #274 ) ;
#15 = PERSON_AND_ORGANIZATION ( #185, #191 ) ;
#16 = CARTESIAN_POINT ( 'NONE',  ( -2.250000000000006700, 0.0000000000000000000, 0.0000000000000000000 ) ) ;
#17 = EDGE_CURVE ( 'NONE', #129, #123, #135, .T. ) ;
#18 = ORIENTED_EDGE ( 'NONE', *, *, #117, .T. ) ;
#19 = PERSON_AND_ORGANIZATION ( #185, #191 ) ;
#20 = DIRECTION ( 'NONE',  ( 0.0000000000000000000, 0.0000000000000000000, -1.000000000000000000 ) ) ;
#21 = CC_DESIGN_PERSON_AND_ORGANIZATION_ASSIGNMENT ( #109, #66, ( #170 ) ) ;
#22 = ORIENTED_EDGE ( 'NONE', *, *, #46, .F. ) ;
#23 = COORDINATED_UNIVERSAL_TIME_OFFSET ( 5, 0, .BEHIND. ) ;
#24 = SHAPE_DEFINITION_REPRESENTATION ( #110, #160 ) ;
#25 = AXIS2_PLACEMENT_3D ( 'NONE', #154, #39, #175 ) ;
#26 = PERSON_AND_ORGANIZATION_ROLE ( 'classification_officer' ) ;
#27 = APPROVAL_ROLE ( '' ) ;
#28 = ORIENTED_EDGE ( 'NONE', *, *, #12, .T. ) ;
#29 = APPROVAL ( #265, 'UNSPECIFIED' ) ;
#30 = DIRECTION ( 'NONE',  ( 0.0000000000000000000, 0.0000000000000000000, -1.000000000000000000 ) ) ;
#31 = ORIENTED_EDGE ( 'NONE', *, *, #17, .F. ) ;
#32 = EDGE_LOOP ( 'NONE', ( #88, #28, #226, #96 ) ) ;
#33 = CARTESIAN_POINT ( 'NONE',  ( 2.500000000000000000, 0.0000000000000000000, 37.50000000000001400 ) ) ;
#34 = VERTEX_POINT ( 'NONE', #93 ) ;
#35 = PERSON_AND_ORGANIZATION ( #185, #191 ) ;
#36 = DIRECTION ( 'NONE',  ( -1.000000000000000000, 0.0000000000000000000, 0.0000000000000000000 ) ) ;
#37 = CIRCLE ( 'NONE', #172, 37.25000000000000700 ) ;
#38 = DIRECTION ( 'NONE',  ( -1.000000000000000000, 0.0000000000000000000, 0.0000000000000000000 ) ) ;
#39 = DIRECTION ( 'NONE',  ( -1.000000000000000000, 0.0000000000000000000, 0.0000000000000000000 ) ) ;
#40 = DIRECTION ( 'NONE',  ( 0.0000000000000000000, 0.0000000000000000000, 1.000000000000000000 ) ) ;
#41 = CARTESIAN_POINT ( 'NONE',  ( 2.500000000000000000, 0.0000000000000000000, 37.25000000000000700 ) ) ;
#42 = VECTOR ( 'NONE', #5, 1000.000000000000100 ) ;
#43 = ADVANCED_FACE ( 'NONE', ( #144 ), #136, .F. ) ;
#44 = CONICAL_SURFACE ( 'NONE', #241, 37.50000000000001400, 0.7853981633974482800 ) ;
#45 = DATE_TIME_ROLE ( 'creation_date' ) ;
#46 = EDGE_CURVE ( 'NONE', #196, #123, #266, .T. ) ;
#47 = SECURITY_CLASSIFICATION_LEVEL ( 'unclassified' ) ;
#48 = ORIENTED_EDGE ( 'NONE', *, *, #131, .F. ) ;
#49 = LOCAL_TIME ( 9, 49, 10.00000000000000000, #23 ) ;
#50 = DIRECTION ( 'NONE',  ( 1.000000000000000000, 0.0000000000000000000, 0.0000000000000000000 ) ) ;
#51 = LINE ( 'NONE', #182, #102 ) ;
#52 = LINE ( 'NONE', #95, #42 ) ;
#53 = AXIS2_PLACEMENT_3D ( 'NONE', #145, #36, #20 ) ;
#54 = CC_DESIGN_PERSON_AND_ORGANIZATION_ASSIGNMENT ( #15, #26, ( #69 ) ) ;
#55 = CARTESIAN_POINT ( 'NONE',  ( -2.250000000000006700, 4.592425496802575900E-015, -37.50000000000001400 ) ) ;
#56 = DIRECTION ( 'NONE',  ( -1.000000000000000000, -0.0000000000000000000, -0.0000000000000000000 ) ) ;
#57 = LINE ( 'NONE', #207, #163 ) ;
#58 =( GEOMETRIC_REPRESENTATION_CONTEXT ( 3 ) GLOBAL_UNCERTAINTY_ASSIGNED_CONTEXT ( ( #13 ) ) GLOBAL_UNIT_ASSIGNED_CONTEXT ( ( #197, #85, #83 ) ) REPRESENTATION_CONTEXT ( 'NONE', 'WORKASPACE' ) );
#59 = DIRECTION ( 'NONE',  ( 0.0000000000000000000, 0.0000000000000000000, -1.000000000000000000 ) ) ;
#60 = EDGE_CURVE ( 'NONE', #123, #129, #200, .T. ) ;
#61 = ORIENTED_EDGE ( 'NONE', *, *, #147, .T. ) ;
#62 = DIRECTION ( 'NONE',  ( 1.000000000000000000, 0.0000000000000000000, 0.0000000000000000000 ) ) ;
#63 = CARTESIAN_POINT ( 'NONE',  ( 2.500000000000000000, 0.0000000000000000000, 0.0000000000000000000 ) ) ;
#64 = LOCAL_TIME ( 9, 49, 10.00000000000000000, #184 ) ;
#65 = CARTESIAN_POINT ( 'NONE',  ( -2.500000000000000000, 0.0000000000000000000, -37.25000000000002100 ) ) ;
#66 = PERSON_AND_ORGANIZATION_ROLE ( 'creator' ) ;
#67 = EDGE_LOOP ( 'NONE', ( #251, #81, #225, #31 ) ) ;
#68 = LOCAL_TIME ( 9, 49, 10.00000000000000000, #124 ) ;
#69 = SECURITY_CLASSIFICATION ( '', '', #47 ) ;
#70 = DIRECTION ( 'NONE',  ( 0.0000000000000000000, 0.0000000000000000000, 1.000000000000000000 ) ) ;
#71 = ORIENTED_EDGE ( 'NONE', *, *, #138, .T. ) ;
#72 = DATE_AND_TIME ( #249, #49 ) ;
#73 = DIRECTION ( 'NONE',  ( -0.7071067811865378000, 8.659560562355054900E-017, -0.7071067811865573400 ) ) ;
#74 = VERTEX_POINT ( 'NONE', #186 ) ;
#75 = DIRECTION ( 'NONE',  ( 1.000000000000000000, -0.0000000000000000000, -0.0000000000000000000 ) ) ;
#76 = EDGE_CURVE ( 'NONE', #74, #123, #51, .T. ) ;
#77 = LOCAL_TIME ( 9, 49, 10.00000000000000000, #105 ) ;
#78 = VECTOR ( 'NONE', #203, 1000.000000000000000 ) ;
#79 = DIRECTION ( 'NONE',  ( 0.0000000000000000000, 0.0000000000000000000, -1.000000000000000000 ) ) ;
#80 = DIRECTION ( 'NONE',  ( -1.000000000000000000, -0.0000000000000000000, -0.0000000000000000000 ) ) ;
#81 = ORIENTED_EDGE ( 'NONE', *, *, #138, .F. ) ;
#82 = CARTESIAN_POINT ( 'NONE',  ( 2.500000000000000000, 0.0000000000000000000, 37.25000000000000700 ) ) ;
#83 =( NAMED_UNIT ( * ) SI_UNIT ( $, .STERADIAN. ) SOLID_ANGLE_UNIT ( ) );
#84 = CC_DESIGN_DATE_AND_TIME_ASSIGNMENT ( #127, #224, ( #69 ) ) ;
#85 =( NAMED_UNIT ( * ) PLANE_ANGLE_UNIT ( ) SI_UNIT ( $, .RADIAN. ) );
#86 = CLOSED_SHELL ( 'NONE', ( #180, #155, #199, #8, #202, #43, #107, #153 ) ) ;
#87 = MECHANICAL_CONTEXT ( 'NONE', #242, 'mechanical' ) ;
#88 = ORIENTED_EDGE ( 'NONE', *, *, #167, .F. ) ;
#89 = CALENDAR_DATE ( 2019, 23, 1 ) ;
#90 = ORIENTED_EDGE ( 'NONE', *, *, #270, .T. ) ;
#91 = VECTOR ( 'NONE', #132, 1000.000000000000100 ) ;
#92 = APPROVAL ( #247, 'UNSPECIFIED' ) ;
#93 = CARTESIAN_POINT ( 'NONE',  ( 2.250000000000000000, 0.0000000000000000000, 37.50000000000001400 ) ) ;
#94 = FACE_OUTER_BOUND ( 'NONE', #189, .T. ) ;
#95 = CARTESIAN_POINT ( 'NONE',  ( -2.250000000000006700, 4.592425496802575900E-015, 37.50000000000001400 ) ) ;
#96 = ORIENTED_EDGE ( 'NONE', *, *, #270, .F. ) ;
#97 = CC_DESIGN_APPROVAL ( #29, ( #170 ) ) ;
#98 = CONICAL_SURFACE ( 'NONE', #141, 37.25000000000000700, 0.7853981633974621600 ) ;
#99 = DIRECTION ( 'NONE',  ( 0.0000000000000000000, 0.0000000000000000000, -1.000000000000000000 ) ) ;
#100 = DIRECTION ( 'NONE',  ( 0.0000000000000000000, 0.0000000000000000000, -1.000000000000000000 ) ) ;
#101 = CARTESIAN_POINT ( 'NONE',  ( -2.250000000000006700, 0.0000000000000000000, 37.50000000000001400 ) ) ;
#102 = VECTOR ( 'NONE', #1, 1000.000000000000000 ) ;
#103 = EDGE_LOOP ( 'NONE', ( #71, #2 ) ) ;
#104 = EDGE_LOOP ( 'NONE', ( #139, #6 ) ) ;
#105 = COORDINATED_UNIVERSAL_TIME_OFFSET ( 5, 0, .BEHIND. ) ;
#106 = PERSON_AND_ORGANIZATION_ROLE ( 'design_owner' ) ;
#107 = ADVANCED_FACE ( 'NONE', ( #9 ), #44, .T. ) ;
#108 = CYLINDRICAL_SURFACE ( 'NONE', #151, 37.50000000000001400 ) ;
#109 = PERSON_AND_ORGANIZATION ( #185, #191 ) ;
#110 = PRODUCT_DEFINITION_SHAPE ( 'NONE', 'NONE',  #170 ) ;
#111 = APPROVAL_PERSON_ORGANIZATION ( #130, #92, #206 ) ;
#112 = CARTESIAN_POINT ( 'NONE',  ( -2.250000000000006700, 0.0000000000000000000, 0.0000000000000000000 ) ) ;
#113 = FACE_OUTER_BOUND ( 'NONE', #104, .T. ) ;
#114 = DATE_AND_TIME ( #238, #64 ) ;
#115 = EDGE_CURVE ( 'NONE', #34, #129, #275, .T. ) ;
#116 = AXIS2_PLACEMENT_3D ( 'NONE', #162, #50, #30 ) ;
#117 = EDGE_CURVE ( 'NONE', #161, #129, #52, .T. ) ;
#118 = DIRECTION ( 'NONE',  ( -1.000000000000000000, -0.0000000000000000000, -0.0000000000000000000 ) ) ;
#119 = EDGE_LOOP ( 'NONE', ( #271, #218, #165, #187 ) ) ;
#120 = CALENDAR_DATE ( 2019, 23, 1 ) ;
#121 = DIRECTION ( 'NONE',  ( -1.000000000000000000, 0.0000000000000000000, 0.0000000000000000000 ) ) ;
#122 = CARTESIAN_POINT ( 'NONE',  ( 2.250000000000000000, 0.0000000000000000000, 0.0000000000000000000 ) ) ;
#123 = VERTEX_POINT ( 'NONE', #55 ) ;
#124 = COORDINATED_UNIVERSAL_TIME_OFFSET ( 5, 0, .BEHIND. ) ;
#125 = CARTESIAN_POINT ( 'NONE',  ( -2.500000000000000000, 0.0000000000000000000, 0.0000000000000000000 ) ) ;
#126 = VERTEX_POINT ( 'NONE', #82 ) ;
#127 = DATE_AND_TIME ( #89, #77 ) ;
#128 = CARTESIAN_POINT ( 'NONE',  ( 0.0000000000000000000, 0.0000000000000000000, 0.0000000000000000000 ) ) ;
#129 = VERTEX_POINT ( 'NONE', #101 ) ;
#130 = PERSON_AND_ORGANIZATION ( #185, #191 ) ;
#131 = EDGE_CURVE ( 'NONE', #161, #196, #237, .T. ) ;
#132 = DIRECTION ( 'NONE',  ( 0.7071067811865474600, 0.0000000000000000000, -0.7071067811865474600 ) ) ;
#133 = ORIENTED_EDGE ( 'NONE', *, *, #60, .F. ) ;
#134 = CARTESIAN_POINT ( 'NONE',  ( 2.500000000000000000, 0.0000000000000000000, 0.0000000000000000000 ) ) ;
#135 = CIRCLE ( 'NONE', #14, 37.50000000000001400 ) ;
#136 = PLANE ( 'NONE',  #116 ) ;
#137 = AXIS2_PLACEMENT_3D ( 'NONE', #188, #233, #212 ) ;
#138 = EDGE_CURVE ( 'NONE', #196, #161, #216, .T. ) ;
#139 = ORIENTED_EDGE ( 'NONE', *, *, #255, .T. ) ;
#140 = PERSON_AND_ORGANIZATION ( #185, #191 ) ;
#141 = AXIS2_PLACEMENT_3D ( 'NONE', #193, #38, #214 ) ;
#142 = EDGE_CURVE ( 'NONE', #34, #74, #253, .T. ) ;
#143 = PERSON_AND_ORGANIZATION ( #185, #191 ) ;
#144 = FACE_OUTER_BOUND ( 'NONE', #103, .T. ) ;
#145 = CARTESIAN_POINT ( 'NONE',  ( 2.250000000000000000, 0.0000000000000000000, 0.0000000000000000000 ) ) ;
#146 = CC_DESIGN_APPROVAL ( #227, ( #213 ) ) ;
#147 = EDGE_CURVE ( 'NONE', #74, #34, #158, .T. ) ;
#148 = DIRECTION ( 'NONE',  ( 0.0000000000000000000, 0.0000000000000000000, -1.000000000000000000 ) ) ;
#149 = VECTOR ( 'NONE', #118, 1000.000000000000000 ) ;
#150 = DIRECTION ( 'NONE',  ( -1.000000000000000000, -0.0000000000000000000, -0.0000000000000000000 ) ) ;
#151 = AXIS2_PLACEMENT_3D ( 'NONE', #244, #150, #40 ) ;
#152 = DIRECTION ( 'NONE',  ( 0.0000000000000000000, 0.0000000000000000000, 1.000000000000000000 ) ) ;
#153 = ADVANCED_FACE ( 'NONE', ( #94 ), #98, .T. ) ;
#154 = CARTESIAN_POINT ( 'NONE',  ( 2.500000000000000000, 0.0000000000000000000, 0.0000000000000000000 ) ) ;
#155 = ADVANCED_FACE ( 'NONE', ( #269 ), #156, .T. ) ;
#156 = CONICAL_SURFACE ( 'NONE', #222, 37.50000000000001400, 0.7853981633974482800 ) ;
#157 = PERSON_AND_ORGANIZATION_ROLE ( 'creator' ) ;
#158 = CIRCLE ( 'NONE', #245, 37.50000000000001400 ) ;
#159 = APPROVAL_STATUS ( 'not_yet_approved' ) ;
#160 = ADVANCED_BREP_SHAPE_REPRESENTATION ( 'Web Model 39291_11929', ( #252, #195 ), #58 ) ;
#161 = VERTEX_POINT ( 'NONE', #223 ) ;
#162 = CARTESIAN_POINT ( 'NONE',  ( -2.500000000000000000, 0.0000000000000000000, 0.0000000000000000000 ) ) ;
#163 = VECTOR ( 'NONE', #73, 1000.000000000000000 ) ;
#164 = LOCAL_TIME ( 9, 49, 10.00000000000000000, #4 ) ;
#165 = ORIENTED_EDGE ( 'NONE', *, *, #60, .T. ) ;
#166 = AXIS2_PLACEMENT_3D ( 'NONE', #179, #217, #148 ) ;
#167 = EDGE_CURVE ( 'NONE', #208, #126, #37, .T. ) ;
#168 = FACE_OUTER_BOUND ( 'NONE', #119, .T. ) ;
#169 = APPROVAL_DATE_TIME ( #114, #29 ) ;
#170 = PRODUCT_DEFINITION ( 'UNKNOWN', '', #213, #220 ) ;
#171 = DIRECTION ( 'NONE',  ( 1.000000000000000000, -0.0000000000000000000, -0.0000000000000000000 ) ) ;
#172 = AXIS2_PLACEMENT_3D ( 'NONE', #176, #262, #10 ) ;
#173 = APPROVAL_PERSON_ORGANIZATION ( #35, #227, #27 ) ;
#174 = CC_DESIGN_PERSON_AND_ORGANIZATION_ASSIGNMENT ( #140, #157, ( #213 ) ) ;
#175 = DIRECTION ( 'NONE',  ( 0.0000000000000000000, 0.0000000000000000000, 1.000000000000000000 ) ) ;
#176 = CARTESIAN_POINT ( 'NONE',  ( 2.500000000000000000, 0.0000000000000000000, 0.0000000000000000000 ) ) ;
#177 = DIRECTION ( 'NONE',  ( 1.000000000000000000, 0.0000000000000000000, 0.0000000000000000000 ) ) ;
#178 = LINE ( 'NONE', #41, #78 ) ;
#179 = CARTESIAN_POINT ( 'NONE',  ( 2.500000000000000000, 0.0000000000000000000, 0.0000000000000000000 ) ) ;
#180 = ADVANCED_FACE ( 'NONE', ( #215 ), #273, .T. ) ;
#181 = PERSON_AND_ORGANIZATION_ROLE ( 'design_supplier' ) ;
#182 = CARTESIAN_POINT ( 'NONE',  ( 2.500000000000000000, 4.592425496802575900E-015, -37.50000000000001400 ) ) ;
#183 = CALENDAR_DATE ( 2019, 23, 1 ) ;
#184 = COORDINATED_UNIVERSAL_TIME_OFFSET ( 5, 0, .BEHIND. ) ;
#185 = PERSON ( 'UNSPECIFIED', 'UNSPECIFIED', 'UNSPECIFIED', ('UNSPECIFIED'), ('UNSPECIFIED'), ('UNSPECIFIED') ) ;
#186 = CARTESIAN_POINT ( 'NONE',  ( 2.250000000000000000, 4.592425496802575900E-015, -37.50000000000001400 ) ) ;
#187 = ORIENTED_EDGE ( 'NONE', *, *, #115, .F. ) ;
#188 = CARTESIAN_POINT ( 'NONE',  ( -2.250000000000006700, 0.0000000000000000000, 0.0000000000000000000 ) ) ;
#189 = EDGE_LOOP ( 'NONE', ( #263, #211, #90, #254 ) ) ;
#190 = APPROVAL_DATE_TIME ( #264, #227 ) ;
#191 = ORGANIZATION ( 'UNSPECIFIED', 'UNSPECIFIED', '' ) ;
#192 = DIRECTION ( 'NONE',  ( 0.0000000000000000000, 0.0000000000000000000, -1.000000000000000000 ) ) ;
#193 = CARTESIAN_POINT ( 'NONE',  ( 2.500000000000000000, 0.0000000000000000000, 0.0000000000000000000 ) ) ;
#194 = CC_DESIGN_PERSON_AND_ORGANIZATION_ASSIGNMENT ( #143, #181, ( #213 ) ) ;
#195 = AXIS2_PLACEMENT_3D ( 'NONE', #128, #152, #177 ) ;
#196 = VERTEX_POINT ( 'NONE', #65 ) ;
#197 =( LENGTH_UNIT ( ) NAMED_UNIT ( * ) SI_UNIT ( .MILLI., .METRE. ) );
#198 = APPLICATION_PROTOCOL_DEFINITION ( 'international standard', 'config_control_design', 1994, #242 ) ;
#199 = ADVANCED_FACE ( 'NONE', ( #168 ), #108, .T. ) ;
#200 = CIRCLE ( 'NONE', #137, 37.50000000000001400 ) ;
#201 = PLANE ( 'NONE',  #250 ) ;
#202 = ADVANCED_FACE ( 'NONE', ( #113 ), #201, .T. ) ;
#203 = DIRECTION ( 'NONE',  ( -0.7071067811865378000, 0.0000000000000000000, 0.7071067811865573400 ) ) ;
#204 = AXIS2_PLACEMENT_3D ( 'NONE', #125, #80, #100 ) ;
#205 = APPROVAL_ROLE ( '' ) ;
#206 = APPROVAL_ROLE ( '' ) ;
#207 = CARTESIAN_POINT ( 'NONE',  ( 2.500000000000000000, 4.561809326823891400E-015, -37.25000000000000700 ) ) ;
#208 = VERTEX_POINT ( 'NONE', #221 ) ;
#209 = APPROVAL_DATE_TIME ( #72, #92 ) ;
#210 = DIRECTION ( 'NONE',  ( 1.000000000000000000, -0.0000000000000000000, -0.0000000000000000000 ) ) ;
#211 = ORIENTED_EDGE ( 'NONE', *, *, #255, .F. ) ;
#212 = DIRECTION ( 'NONE',  ( 0.0000000000000000000, 0.0000000000000000000, -1.000000000000000000 ) ) ;
#213 = PRODUCT_DEFINITION_FORMATION_WITH_SPECIFIED_SOURCE ( 'ANY', '', #229, .NOT_KNOWN. ) ;
#214 = DIRECTION ( 'NONE',  ( 0.0000000000000000000, 0.0000000000000000000, 1.000000000000000000 ) ) ;
#215 = FACE_OUTER_BOUND ( 'NONE', #32, .T. ) ;
#216 = CIRCLE ( 'NONE', #231, 37.25000000000002100 ) ;
#217 = DIRECTION ( 'NONE',  ( 1.000000000000000000, 0.0000000000000000000, 0.0000000000000000000 ) ) ;
#218 = ORIENTED_EDGE ( 'NONE', *, *, #76, .T. ) ;
#219 = APPLICATION_PROTOCOL_DEFINITION ( 'international standard', 'config_control_design', 1994, #7 ) ;
#220 = DESIGN_CONTEXT ( 'detailed design', #7, 'design' ) ;
#221 = CARTESIAN_POINT ( 'NONE',  ( 2.500000000000000000, 4.577117411813233300E-015, -37.25000000000000700 ) ) ;
#222 = AXIS2_PLACEMENT_3D ( 'NONE', #258, #171, #192 ) ;
#223 = CARTESIAN_POINT ( 'NONE',  ( -2.500000000000000000, 4.577117411813234800E-015, 37.25000000000002100 ) ) ;
#224 = DATE_TIME_ROLE ( 'classification_date' ) ;
#225 = ORIENTED_EDGE ( 'NONE', *, *, #46, .T. ) ;
#226 = ORIENTED_EDGE ( 'NONE', *, *, #142, .F. ) ;
#227 = APPROVAL ( #159, 'UNSPECIFIED' ) ;
#228 = CYLINDRICAL_SURFACE ( 'NONE', #235, 37.50000000000001400 ) ;
#229 = PRODUCT ( 'Web Model 39291_11929', 'Web Model 39291_11929', '', ( #87 ) ) ;
#230 = DIRECTION ( 'NONE',  ( -1.000000000000000000, -0.0000000000000000000, -0.0000000000000000000 ) ) ;
#231 = AXIS2_PLACEMENT_3D ( 'NONE', #257, #56, #59 ) ;
#232 = CC_DESIGN_APPROVAL ( #92, ( #69 ) ) ;
#233 = DIRECTION ( 'NONE',  ( 1.000000000000000000, -0.0000000000000000000, -0.0000000000000000000 ) ) ;
#234 = ORIENTED_EDGE ( 'NONE', *, *, #17, .T. ) ;
#235 = AXIS2_PLACEMENT_3D ( 'NONE', #134, #230, #70 ) ;
#236 = CC_DESIGN_DATE_AND_TIME_ASSIGNMENT ( #261, #45, ( #170 ) ) ;
#237 = CIRCLE ( 'NONE', #204, 37.25000000000002100 ) ;
#238 = CALENDAR_DATE ( 2019, 23, 1 ) ;
#239 = CC_DESIGN_PERSON_AND_ORGANIZATION_ASSIGNMENT ( #19, #106, ( #229 ) ) ;
#240 = ORIENTED_EDGE ( 'NONE', *, *, #76, .F. ) ;
#241 = AXIS2_PLACEMENT_3D ( 'NONE', #16, #210, #99 ) ;
#242 = APPLICATION_CONTEXT ( 'configuration controlled 3d designs of mechanical parts and assemblies' ) ;
#243 = APPROVAL_PERSON_ORGANIZATION ( #11, #29, #205 ) ;
#244 = CARTESIAN_POINT ( 'NONE',  ( 2.500000000000000000, 0.0000000000000000000, 0.0000000000000000000 ) ) ;
#245 = AXIS2_PLACEMENT_3D ( 'NONE', #122, #121, #79 ) ;
#246 = CC_DESIGN_SECURITY_CLASSIFICATION ( #69, ( #213 ) ) ;
#247 = APPROVAL_STATUS ( 'not_yet_approved' ) ;
#248 = EDGE_LOOP ( 'NONE', ( #240, #61, #268, #234 ) ) ;
#249 = CALENDAR_DATE ( 2019, 23, 1 ) ;
#250 = AXIS2_PLACEMENT_3D ( 'NONE', #63, #62, #267 ) ;
#251 = ORIENTED_EDGE ( 'NONE', *, *, #117, .F. ) ;
#252 = MANIFOLD_SOLID_BREP ( 'Chamfer1', #86 ) ;
#253 = CIRCLE ( 'NONE', #53, 37.50000000000001400 ) ;
#254 = ORIENTED_EDGE ( 'NONE', *, *, #147, .F. ) ;
#255 = EDGE_CURVE ( 'NONE', #126, #208, #3, .T. ) ;
#256 = FACE_OUTER_BOUND ( 'NONE', #248, .T. ) ;
#257 = CARTESIAN_POINT ( 'NONE',  ( -2.500000000000000000, 0.0000000000000000000, 0.0000000000000000000 ) ) ;
#258 = CARTESIAN_POINT ( 'NONE',  ( -2.250000000000006700, 0.0000000000000000000, 0.0000000000000000000 ) ) ;
#259 = PRODUCT_RELATED_PRODUCT_CATEGORY ( 'detail', '', ( #229 ) ) ;
#260 = EDGE_LOOP ( 'NONE', ( #48, #18, #133, #22 ) ) ;
#261 = DATE_AND_TIME ( #120, #164 ) ;
#262 = DIRECTION ( 'NONE',  ( 1.000000000000000000, 0.0000000000000000000, 0.0000000000000000000 ) ) ;
#263 = ORIENTED_EDGE ( 'NONE', *, *, #12, .F. ) ;
#264 = DATE_AND_TIME ( #183, #68 ) ;
#265 = APPROVAL_STATUS ( 'not_yet_approved' ) ;
#266 = LINE ( 'NONE', #272, #91 ) ;
#267 = DIRECTION ( 'NONE',  ( 0.0000000000000000000, 0.0000000000000000000, -1.000000000000000000 ) ) ;
#268 = ORIENTED_EDGE ( 'NONE', *, *, #115, .T. ) ;
#269 = FACE_OUTER_BOUND ( 'NONE', #260, .T. ) ;
#270 = EDGE_CURVE ( 'NONE', #126, #34, #178, .T. ) ;
#271 = ORIENTED_EDGE ( 'NONE', *, *, #142, .T. ) ;
#272 = CARTESIAN_POINT ( 'NONE',  ( -2.250000000000006700, 0.0000000000000000000, -37.50000000000001400 ) ) ;
#273 = CONICAL_SURFACE ( 'NONE', #25, 37.25000000000000700, 0.7853981633974621600 ) ;
#274 = DIRECTION ( 'NONE',  ( 0.0000000000000000000, 0.0000000000000000000, -1.000000000000000000 ) ) ;
#275 = LINE ( 'NONE', #33, #149 ) ;
ENDSEC;
END-ISO-10303-21;
