ISO-10303-21;
HEADER;
FILE_DESCRIPTION (( 'STEP AP203' ),
    '1' );
FILE_NAME ('20217-E0W.STEP',
    '2009-09-14T20:07:45',
    ( 'Admin' ),
    ( 'Thorlabs, Inc.' ),
    'SwSTEP 2.0',
    'SolidWorks 2007',
    '' );
FILE_SCHEMA (( 'CONFIG_CONTROL_DESIGN' ));
ENDSEC;

DATA;
#1 = VERTEX_POINT ( 'NONE', #97 ) ;
#2 = CLOSED_SHELL ( 'NONE', ( #25, #24, #6, #34, #32, #47 ) ) ;
#3 = EDGE_LOOP ( 'NONE', ( #31, #39, #35 ) ) ;
#4 = EDGE_CURVE ( 'NONE', #8, #1, #102, .T. ) ;
#5 = ORIENTED_EDGE ( 'NONE', *, *, #4, .T. ) ;
#6 = ADVANCED_FACE ( 'NONE', ( #79 ), #56, .F. ) ;
#7 = ORIENTED_EDGE ( 'NONE', *, *, #4, .F. ) ;
#8 = VERTEX_POINT ( 'NONE', #104 ) ;
#9 = VERTEX_POINT ( 'NONE', #57 ) ;
#10 = EDGE_CURVE ( 'NONE', #21, #1, #105, .T. ) ;
#11 = EDGE_LOOP ( 'NONE', ( #5, #15, #17, #18 ) ) ;
#12 = EDGE_CURVE ( 'NONE', #21, #8, #107, .T. ) ;
#13 = ORIENTED_EDGE ( 'NONE', *, *, #10, .T. ) ;
#14 = VERTEX_POINT ( 'NONE', #82 ) ;
#15 = ORIENTED_EDGE ( 'NONE', *, *, #16, .T. ) ;
#16 = EDGE_CURVE ( 'NONE', #1, #9, #87, .T. ) ;
#17 = ORIENTED_EDGE ( 'NONE', *, *, #22, .F. ) ;
#18 = ORIENTED_EDGE ( 'NONE', *, *, #19, .F. ) ;
#19 = EDGE_CURVE ( 'NONE', #8, #14, #92, .T. ) ;
#20 = EDGE_LOOP ( 'NONE', ( #23, #13, #7 ) ) ;
#21 = VERTEX_POINT ( 'NONE', #88 ) ;
#22 = EDGE_CURVE ( 'NONE', #14, #9, #63, .T. ) ;
#23 = ORIENTED_EDGE ( 'NONE', *, *, #12, .F. ) ;
#24 = ADVANCED_FACE ( 'NONE', ( #64 ), #93, .T. ) ;
#25 = ADVANCED_FACE ( 'NONE', ( #73 ), #77, .T. ) ;
#26 = CARTESIAN_POINT ( 'NONE',  ( 0.0000000000000000000, 0.0000000000000000000, 40.71300000000000100 ) ) ;
#27 = AXIS2_PLACEMENT_3D ( 'NONE', #26, #30, #29 ) ;
#28 = MANIFOLD_SOLID_BREP ( 'NONE', #2 ) ;
#29 = DIRECTION ( 'NONE',  ( 0.0000000000000000000, -1.000000000000000000, -1.624539110787635600E-016 ) ) ;
#30 = DIRECTION ( 'NONE',  ( 1.000000000000000000, 0.0000000000000000000, 0.0000000000000000000 ) ) ;
#31 = ORIENTED_EDGE ( 'NONE', *, *, #40, .F. ) ;
#32 = ADVANCED_FACE ( 'NONE', ( #78 ), #68, .T. ) ;
#33 = ORIENTED_EDGE ( 'NONE', *, *, #53, .T. ) ;
#34 = ADVANCED_FACE ( 'NONE', ( #153 ), #197, .F. ) ;
#35 = ORIENTED_EDGE ( 'NONE', *, *, #22, .T. ) ;
#36 = EDGE_LOOP ( 'NONE', ( #38, #37, #33 ) ) ;
#37 = ORIENTED_EDGE ( 'NONE', *, *, #40, .T. ) ;
#38 = ORIENTED_EDGE ( 'NONE', *, *, #41, .F. ) ;
#39 = ORIENTED_EDGE ( 'NONE', *, *, #41, .T. ) ;
#40 = EDGE_CURVE ( 'NONE', #42, #9, #122, .T. ) ;
#41 = EDGE_CURVE ( 'NONE', #42, #14, #156, .T. ) ;
#42 = VERTEX_POINT ( 'NONE', #157 ) ;
#43 = ORIENTED_EDGE ( 'NONE', *, *, #53, .F. ) ;
#44 = ORIENTED_EDGE ( 'NONE', *, *, #19, .T. ) ;
#45 = EDGE_CURVE ( 'NONE', #1, #8, #129, .T. ) ;
#46 = EDGE_LOOP ( 'NONE', ( #48, #50, #44, #43 ) ) ;
#47 = ADVANCED_FACE ( 'NONE', ( #161 ), #116, .T. ) ;
#48 = ORIENTED_EDGE ( 'NONE', *, *, #16, .F. ) ;
#49 = ORIENTED_EDGE ( 'NONE', *, *, #45, .F. ) ;
#50 = ORIENTED_EDGE ( 'NONE', *, *, #45, .T. ) ;
#51 = ORIENTED_EDGE ( 'NONE', *, *, #12, .T. ) ;
#52 = ORIENTED_EDGE ( 'NONE', *, *, #10, .F. ) ;
#53 = EDGE_CURVE ( 'NONE', #9, #14, #109, .T. ) ;
#54 = EDGE_LOOP ( 'NONE', ( #52, #51, #49 ) ) ;
#55 = CARTESIAN_POINT ( 'NONE',  ( 0.0000000000000000000, 3.799188529658298400E-016, -0.06825021379310924900 ) ) ;
#56 = SPHERICAL_SURFACE ( 'NONE', #59, 50.66299999999999000 ) ;
#57 = CARTESIAN_POINT ( 'NONE',  ( 0.0000000000000000000, 12.69999999999998900, 3.617617250958258700 ) ) ;
#58 = DIRECTION ( 'NONE',  ( 0.0000000000000000000, 1.000000000000000000, 1.369617650732729900E-016 ) ) ;
#59 = AXIS2_PLACEMENT_3D ( 'NONE', #103, #60, #58 ) ;
#60 = DIRECTION ( 'NONE',  ( -1.000000000000000000, 0.0000000000000000000, 0.0000000000000000000 ) ) ;
#61 = CARTESIAN_POINT ( 'NONE',  ( 0.0000000000000000000, -2.971416545364253300E-016, 3.617617250958256900 ) ) ;
#62 = AXIS2_PLACEMENT_3D ( 'NONE', #61, #96, #95 ) ;
#63 = CIRCLE ( 'NONE', #62, 12.69999999999999900 ) ;
#64 = FACE_OUTER_BOUND ( 'NONE', #20, .T. ) ;
#65 = CARTESIAN_POINT ( 'NONE',  ( 0.0000000000000000000, 0.0000000000000000000, 40.71300000000000100 ) ) ;
#66 = AXIS2_PLACEMENT_3D ( 'NONE', #65, #101, #100 ) ;
#67 = CARTESIAN_POINT ( 'NONE',  ( 0.0000000000000000000, 0.0000000000000000000, 40.71300000000000100 ) ) ;
#68 = SPHERICAL_SURFACE ( 'NONE', #27, 42.71300000000000100 ) ;
#69 = DIRECTION ( 'NONE',  ( 0.0000000000000000000, -1.000000000000000000, -1.707404996040164500E-016 ) ) ;
#70 = DIRECTION ( 'NONE',  ( 0.0000000000000000000, -1.000000000000000000, -1.624539110787635600E-016 ) ) ;
#71 = DIRECTION ( 'NONE',  ( 1.000000000000000000, 0.0000000000000000000, 0.0000000000000000000 ) ) ;
#72 = AXIS2_PLACEMENT_3D ( 'NONE', #94, #71, #70 ) ;
#73 = FACE_OUTER_BOUND ( 'NONE', #11, .T. ) ;
#74 = DIRECTION ( 'NONE',  ( 0.0000000000000000000, -1.836909530733566100E-016, 1.000000000000000000 ) ) ;
#75 = CARTESIAN_POINT ( 'NONE',  ( 0.0000000000000000000, 0.0000000000000000000, 2.000000000000000000 ) ) ;
#76 = AXIS2_PLACEMENT_3D ( 'NONE', #75, #74, #69 ) ;
#77 = CYLINDRICAL_SURFACE ( 'NONE', #76, 12.69999999999999900 ) ;
#78 = FACE_OUTER_BOUND ( 'NONE', #54, .T. ) ;
#79 = FACE_OUTER_BOUND ( 'NONE', #3, .T. ) ;
#80 = DIRECTION ( 'NONE',  ( 0.0000000000000000000, -1.000000000000000000, -1.835460370743176800E-016 ) ) ;
#81 = DIRECTION ( 'NONE',  ( 0.0000000000000000000, -1.836909530733566100E-016, 1.000000000000000000 ) ) ;
#82 = CARTESIAN_POINT ( 'NONE',  ( -1.555250069354417900E-015, -12.69999999999998000, 3.617617250958256000 ) ) ;
#83 = DIRECTION ( 'NONE',  ( 0.0000000000000000000, 0.0000000000000000000, 1.000000000000000000 ) ) ;
#84 = DIRECTION ( 'NONE',  ( -1.000000000000000000, 0.0000000000000000000, 0.0000000000000000000 ) ) ;
#85 = VECTOR ( 'NONE', #99, 1000.000000000000000 ) ;
#86 = CARTESIAN_POINT ( 'NONE',  ( 1.555250069354419100E-015, 12.69999999999999900, 2.000000000000002200 ) ) ;
#87 = LINE ( 'NONE', #86, #85 ) ;
#88 = CARTESIAN_POINT ( 'NONE',  ( 0.0000000000000000000, 5.230661119081520800E-015, -2.000000000000001800 ) ) ;
#89 = DIRECTION ( 'NONE',  ( 0.0000000000000000000, -1.836909530733566100E-016, 1.000000000000000000 ) ) ;
#90 = VECTOR ( 'NONE', #89, 1000.000000000000000 ) ;
#91 = CARTESIAN_POINT ( 'NONE',  ( 0.0000000000000000000, -12.69999999999999900, 1.999999999999997800 ) ) ;
#92 = LINE ( 'NONE', #91, #90 ) ;
#93 = SPHERICAL_SURFACE ( 'NONE', #72, 42.71300000000000100 ) ;
#94 = CARTESIAN_POINT ( 'NONE',  ( 0.0000000000000000000, 0.0000000000000000000, 40.71300000000000100 ) ) ;
#95 = DIRECTION ( 'NONE',  ( 0.0000000000000000000, -1.000000000000000000, -1.707404996040164500E-016 ) ) ;
#96 = DIRECTION ( 'NONE',  ( 0.0000000000000000000, -1.836909530733566100E-016, 1.000000000000000000 ) ) ;
#97 = CARTESIAN_POINT ( 'NONE',  ( 1.555250069354418300E-015, 12.70000000000000100, -0.06825021379310353100 ) ) ;
#98 = AXIS2_PLACEMENT_3D ( 'NONE', #55, #81, #80 ) ;
#99 = DIRECTION ( 'NONE',  ( 0.0000000000000000000, -1.836909530733566100E-016, 1.000000000000000000 ) ) ;
#100 = DIRECTION ( 'NONE',  ( 1.224606353822377300E-016, 1.000000000000000000, 0.0000000000000000000 ) ) ;
#101 = DIRECTION ( 'NONE',  ( 1.000000000000000000, -1.224606353822377300E-016, -2.249491082733206400E-032 ) ) ;
#102 = CIRCLE ( 'NONE', #98, 12.69999999999999900 ) ;
#103 = CARTESIAN_POINT ( 'NONE',  ( 0.0000000000000000000, 0.0000000000000000000, 52.66299999999999000 ) ) ;
#104 = CARTESIAN_POINT ( 'NONE',  ( 0.0000000000000000000, -12.69999999999999400, -0.06825021379310586300 ) ) ;
#105 = CIRCLE ( 'NONE', #66, 42.71300000000000100 ) ;
#106 = AXIS2_PLACEMENT_3D ( 'NONE', #67, #84, #83 ) ;
#107 = CIRCLE ( 'NONE', #106, 42.71300000000000100 ) ;
#108 = CARTESIAN_POINT ( 'NONE',  ( 0.0000000000000000000, 0.0000000000000000000, 52.66299999999999000 ) ) ;
#109 = CIRCLE ( 'NONE', #120, 12.69999999999999900 ) ;
#110 = DIRECTION ( 'NONE',  ( 0.0000000000000000000, -1.000000000000000000, -1.707404996040164500E-016 ) ) ;
#111 = AXIS2_PLACEMENT_3D ( 'NONE', #113, #112, #130 ) ;
#112 = DIRECTION ( 'NONE',  ( 0.0000000000000000000, 0.0000000000000000000, 1.000000000000000000 ) ) ;
#113 = CARTESIAN_POINT ( 'NONE',  ( 0.0000000000000000000, 0.0000000000000000000, 0.0000000000000000000 ) ) ;
#114 = DIRECTION ( 'NONE',  ( 0.0000000000000000000, -1.836909530733566100E-016, 1.000000000000000000 ) ) ;
#115 = AXIS2_PLACEMENT_3D ( 'NONE', #154, #114, #110 ) ;
#116 = CYLINDRICAL_SURFACE ( 'NONE', #115, 12.69999999999999900 ) ;
#117 = DIRECTION ( 'NONE',  ( 0.0000000000000000000, -1.000000000000000000, -1.707404996040164500E-016 ) ) ;
#118 = DIRECTION ( 'NONE',  ( 0.0000000000000000000, -1.836909530733566100E-016, 1.000000000000000000 ) ) ;
#119 = CARTESIAN_POINT ( 'NONE',  ( 0.0000000000000000000, -2.971416545364253300E-016, 3.617617250958256900 ) ) ;
#120 = AXIS2_PLACEMENT_3D ( 'NONE', #119, #118, #117 ) ;
#121 = AXIS2_PLACEMENT_3D ( 'NONE', #227, #226, #225 ) ;
#122 = CIRCLE ( 'NONE', #121, 50.66299999999999000 ) ;
#123 = DIRECTION ( 'NONE',  ( -1.224606353822377500E-016, -1.000000000000000000, 0.0000000000000000000 ) ) ;
#124 = DIRECTION ( 'NONE',  ( -1.000000000000000000, 1.224606353822377300E-016, 2.249491082733206400E-032 ) ) ;
#125 = DIRECTION ( 'NONE',  ( 0.0000000000000000000, -1.000000000000000000, -1.835460370743176800E-016 ) ) ;
#126 = DIRECTION ( 'NONE',  ( 0.0000000000000000000, -1.836909530733566100E-016, 1.000000000000000000 ) ) ;
#127 = CARTESIAN_POINT ( 'NONE',  ( 0.0000000000000000000, 3.799188529658298400E-016, -0.06825021379310924900 ) ) ;
#128 = AXIS2_PLACEMENT_3D ( 'NONE', #127, #126, #125 ) ;
#129 = CIRCLE ( 'NONE', #128, 12.69999999999999900 ) ;
#130 = DIRECTION ( 'NONE',  ( 1.000000000000000000, 0.0000000000000000000, 0.0000000000000000000 ) ) ;
#131 =( NAMED_UNIT ( * ) PLANE_ANGLE_UNIT ( ) SI_UNIT ( $, .RADIAN. ) );
#132 =( LENGTH_UNIT ( ) NAMED_UNIT ( * ) SI_UNIT ( .MILLI., .METRE. ) );
#133 = CC_DESIGN_PERSON_AND_ORGANIZATION_ASSIGNMENT ( #135, #134, ( #150 ) ) ;
#134 = PERSON_AND_ORGANIZATION_ROLE ( 'design_supplier' ) ;
#135 = PERSON_AND_ORGANIZATION ( #183, #182 ) ;
#136 = CC_DESIGN_PERSON_AND_ORGANIZATION_ASSIGNMENT ( #138, #137, ( #150 ) ) ;
#137 = PERSON_AND_ORGANIZATION_ROLE ( 'creator' ) ;
#138 = PERSON_AND_ORGANIZATION ( #183, #182 ) ;
#139 = CC_DESIGN_APPROVAL ( #147, ( #150 ) ) ;
#140 = APPROVAL_DATE_TIME ( #141, #147 ) ;
#141 = DATE_AND_TIME ( #142, #143 ) ;
#142 = CALENDAR_DATE ( 2009, 14, 9 ) ;
#143 = LOCAL_TIME ( 16, 7, 45.00000000000000000, #144 ) ;
#144 = COORDINATED_UNIVERSAL_TIME_OFFSET ( 5, 0, .BEHIND. ) ;
#145 = APPROVAL_PERSON_ORGANIZATION ( #149, #147, #146 ) ;
#146 = APPROVAL_ROLE ( '' ) ;
#147 = APPROVAL ( #148, 'UNSPECIFIED' ) ;
#148 = APPROVAL_STATUS ( 'not_yet_approved' ) ;
#149 = PERSON_AND_ORGANIZATION ( #183, #182 ) ;
#150 = PRODUCT_DEFINITION_FORMATION_WITH_SPECIFIED_SOURCE ( 'ANY', '', #184, .NOT_KNOWN. ) ;
#151 = DIRECTION ( 'NONE',  ( -1.000000000000000000, 0.0000000000000000000, 0.0000000000000000000 ) ) ;
#152 = AXIS2_PLACEMENT_3D ( 'NONE', #108, #151, #155 ) ;
#153 = FACE_OUTER_BOUND ( 'NONE', #36, .T. ) ;
#154 = CARTESIAN_POINT ( 'NONE',  ( 0.0000000000000000000, 0.0000000000000000000, 2.000000000000000000 ) ) ;
#155 = DIRECTION ( 'NONE',  ( 0.0000000000000000000, 1.000000000000000000, 1.369617650732729900E-016 ) ) ;
#156 = CIRCLE ( 'NONE', #224, 50.66299999999999000 ) ;
#157 = CARTESIAN_POINT ( 'NONE',  ( 0.0000000000000000000, 1.240844634074061900E-014, 1.999999999999994900 ) ) ;
#158 = SHAPE_DEFINITION_REPRESENTATION ( #162, #159 ) ;
#159 = ADVANCED_BREP_SHAPE_REPRESENTATION ( '20217-E0W', ( #28, #111 ), #160 ) ;
#160 =( GEOMETRIC_REPRESENTATION_CONTEXT ( 3 ) GLOBAL_UNCERTAINTY_ASSIGNED_CONTEXT ( ( #198 ) ) GLOBAL_UNIT_ASSIGNED_CONTEXT ( ( #132, #131, #199 ) ) REPRESENTATION_CONTEXT ( 'NONE', 'WORKASPACE' ) );
#161 = FACE_OUTER_BOUND ( 'NONE', #46, .T. ) ;
#162 = PRODUCT_DEFINITION_SHAPE ( 'NONE', 'NONE',  #175 ) ;
#163 = PERSON_AND_ORGANIZATION ( #183, #182 ) ;
#164 = CC_DESIGN_APPROVAL ( #172, ( #175 ) ) ;
#165 = APPROVAL_DATE_TIME ( #166, #172 ) ;
#166 = DATE_AND_TIME ( #167, #168 ) ;
#167 = CALENDAR_DATE ( 2009, 14, 9 ) ;
#168 = LOCAL_TIME ( 16, 7, 45.00000000000000000, #169 ) ;
#169 = COORDINATED_UNIVERSAL_TIME_OFFSET ( 5, 0, .BEHIND. ) ;
#170 = APPROVAL_PERSON_ORGANIZATION ( #174, #172, #171 ) ;
#171 = APPROVAL_ROLE ( '' ) ;
#172 = APPROVAL ( #173, 'UNSPECIFIED' ) ;
#173 = APPROVAL_STATUS ( 'not_yet_approved' ) ;
#174 = PERSON_AND_ORGANIZATION ( #183, #182 ) ;
#175 = PRODUCT_DEFINITION ( 'UNKNOWN', '', #150, #176 ) ;
#176 = DESIGN_CONTEXT ( 'detailed design', #178, 'design' ) ;
#177 = APPLICATION_PROTOCOL_DEFINITION ( 'international standard', 'config_control_design', 1994, #178 ) ;
#178 = APPLICATION_CONTEXT ( 'configuration controlled 3d designs of mechanical parts and assemblies' ) ;
#179 = CC_DESIGN_PERSON_AND_ORGANIZATION_ASSIGNMENT ( #181, #180, ( #184 ) ) ;
#180 = PERSON_AND_ORGANIZATION_ROLE ( 'design_owner' ) ;
#181 = PERSON_AND_ORGANIZATION ( #183, #182 ) ;
#182 = ORGANIZATION ( 'UNSPECIFIED', 'UNSPECIFIED', '' ) ;
#183 = PERSON ( 'UNSPECIFIED', 'UNSPECIFIED', 'UNSPECIFIED', ('UNSPECIFIED'), ('UNSPECIFIED'), ('UNSPECIFIED') ) ;
#184 = PRODUCT ( '20217-E0W', '20217-E0W', '', ( #185 ) ) ;
#185 = MECHANICAL_CONTEXT ( 'NONE', #187, 'mechanical' ) ;
#186 = APPLICATION_PROTOCOL_DEFINITION ( 'international standard', 'config_control_design', 1994, #187 ) ;
#187 = APPLICATION_CONTEXT ( 'configuration controlled 3d designs of mechanical parts and assemblies' ) ;
#188 = CARTESIAN_POINT ( 'NONE',  ( 0.0000000000000000000, 0.0000000000000000000, 52.66299999999999000 ) ) ;
#189 = CC_DESIGN_DATE_AND_TIME_ASSIGNMENT ( #191, #190, ( #175 ) ) ;
#190 = DATE_TIME_ROLE ( 'creation_date' ) ;
#191 = DATE_AND_TIME ( #192, #193 ) ;
#192 = CALENDAR_DATE ( 2009, 14, 9 ) ;
#193 = LOCAL_TIME ( 16, 7, 45.00000000000000000, #194 ) ;
#194 = COORDINATED_UNIVERSAL_TIME_OFFSET ( 5, 0, .BEHIND. ) ;
#195 = CC_DESIGN_PERSON_AND_ORGANIZATION_ASSIGNMENT ( #163, #196, ( #175 ) ) ;
#196 = PERSON_AND_ORGANIZATION_ROLE ( 'creator' ) ;
#197 = SPHERICAL_SURFACE ( 'NONE', #152, 50.66299999999999000 ) ;
#198 = UNCERTAINTY_MEASURE_WITH_UNIT (LENGTH_MEASURE( 1.000000000000000100E-005 ), #132, 'distance_accuracy_value', 'NONE');
#199 =( NAMED_UNIT ( * ) SI_UNIT ( $, .STERADIAN. ) SOLID_ANGLE_UNIT ( ) );
#200 = PRODUCT_RELATED_PRODUCT_CATEGORY ( 'detail', '', ( #184 ) ) ;
#201 = CC_DESIGN_SECURITY_CLASSIFICATION ( #222, ( #150 ) ) ;
#202 = CC_DESIGN_APPROVAL ( #210, ( #222 ) ) ;
#203 = APPROVAL_DATE_TIME ( #204, #210 ) ;
#204 = DATE_AND_TIME ( #205, #206 ) ;
#205 = CALENDAR_DATE ( 2009, 14, 9 ) ;
#206 = LOCAL_TIME ( 16, 7, 45.00000000000000000, #207 ) ;
#207 = COORDINATED_UNIVERSAL_TIME_OFFSET ( 5, 0, .BEHIND. ) ;
#208 = APPROVAL_PERSON_ORGANIZATION ( #212, #210, #209 ) ;
#209 = APPROVAL_ROLE ( '' ) ;
#210 = APPROVAL ( #211, 'UNSPECIFIED' ) ;
#211 = APPROVAL_STATUS ( 'not_yet_approved' ) ;
#212 = PERSON_AND_ORGANIZATION ( #183, #182 ) ;
#213 = CC_DESIGN_DATE_AND_TIME_ASSIGNMENT ( #215, #214, ( #222 ) ) ;
#214 = DATE_TIME_ROLE ( 'classification_date' ) ;
#215 = DATE_AND_TIME ( #216, #217 ) ;
#216 = CALENDAR_DATE ( 2009, 14, 9 ) ;
#217 = LOCAL_TIME ( 16, 7, 45.00000000000000000, #218 ) ;
#218 = COORDINATED_UNIVERSAL_TIME_OFFSET ( 5, 0, .BEHIND. ) ;
#219 = CC_DESIGN_PERSON_AND_ORGANIZATION_ASSIGNMENT ( #221, #220, ( #222 ) ) ;
#220 = PERSON_AND_ORGANIZATION_ROLE ( 'classification_officer' ) ;
#221 = PERSON_AND_ORGANIZATION ( #183, #182 ) ;
#222 = SECURITY_CLASSIFICATION ( '', '', #223 ) ;
#223 = SECURITY_CLASSIFICATION_LEVEL ( 'unclassified' ) ;
#224 = AXIS2_PLACEMENT_3D ( 'NONE', #188, #124, #123 ) ;
#225 = DIRECTION ( 'NONE',  ( 0.0000000000000000000, 0.0000000000000000000, -1.000000000000000000 ) ) ;
#226 = DIRECTION ( 'NONE',  ( 1.000000000000000000, 0.0000000000000000000, 0.0000000000000000000 ) ) ;
#227 = CARTESIAN_POINT ( 'NONE',  ( 0.0000000000000000000, 0.0000000000000000000, 52.66299999999999000 ) ) ;
ENDSEC;
END-ISO-10303-21;
