ISO-10303-21;
HEADER;
FILE_DESCRIPTION (( 'STEP AP203' ),
    '1' );
FILE_NAME ('Web Model 46460_46460.step',
    '2018-03-15T18:34:00',
    ( '' ),
    ( '' ),
    'SwSTEP 2.0',
    'SolidWorks 2016',
    '' );
FILE_SCHEMA (( 'CONFIG_CONTROL_DESIGN' ));
ENDSEC;

DATA;
#1 = APPROVAL ( #62, 'UNSPECIFIED' ) ;
#2 = DIRECTION ( 'NONE',  ( 0.0000000000000000000, 0.0000000000000000000, 1.000000000000000000 ) ) ;
#3 = PRODUCT_DEFINITION_FORMATION_WITH_SPECIFIED_SOURCE ( 'ANY', '', #38, .NOT_KNOWN. ) ;
#4 = PERSON_AND_ORGANIZATION ( #114, #137 ) ;
#5 = CALENDAR_DATE ( 2018, 15, 3 ) ;
#6 = VERTEX_POINT ( 'NONE', #24 ) ;
#7 = SECURITY_CLASSIFICATION ( '', '', #75 ) ;
#8 = AXIS2_PLACEMENT_3D ( 'NONE', #13, #2, #125 ) ;
#9 = CARTESIAN_POINT ( 'NONE',  ( -0.7500000000000000000, 0.0000000000000000000, 0.0000000000000000000 ) ) ;
#10 = CC_DESIGN_PERSON_AND_ORGANIZATION_ASSIGNMENT ( #55, #16, ( #7 ) ) ;
#11 = DIRECTION ( 'NONE',  ( -1.000000000000000000, -0.0000000000000000000, -0.0000000000000000000 ) ) ;
#12 = CIRCLE ( 'NONE', #161, 18.99999999999999600 ) ;
#13 = CARTESIAN_POINT ( 'NONE',  ( 0.0000000000000000000, 0.0000000000000000000, 0.0000000000000000000 ) ) ;
#14 = PERSON_AND_ORGANIZATION_ROLE ( 'creator' ) ;
#15 = PERSON_AND_ORGANIZATION ( #114, #137 ) ;
#16 = PERSON_AND_ORGANIZATION_ROLE ( 'classification_officer' ) ;
#17 = APPLICATION_CONTEXT ( 'configuration controlled 3d designs of mechanical parts and assemblies' ) ;
#18 = DIRECTION ( 'NONE',  ( -1.000000000000000000, -0.0000000000000000000, -0.0000000000000000000 ) ) ;
#19 = PRODUCT_RELATED_PRODUCT_CATEGORY ( 'detail', '', ( #38 ) ) ;
#20 = EDGE_LOOP ( 'NONE', ( #150, #83, #30, #50 ) ) ;
#21 = CC_DESIGN_APPROVAL ( #67, ( #7 ) ) ;
#22 = CYLINDRICAL_SURFACE ( 'NONE', #40, 18.99999999999999600 ) ;
#23 = CC_DESIGN_PERSON_AND_ORGANIZATION_ASSIGNMENT ( #15, #155, ( #77 ) ) ;
#24 = CARTESIAN_POINT ( 'NONE',  ( 0.7500000000000000000, 0.0000000000000000000, 18.99999999999999600 ) ) ;
#25 = DIRECTION ( 'NONE',  ( 0.0000000000000000000, 0.0000000000000000000, -1.000000000000000000 ) ) ;
#26 = DATE_TIME_ROLE ( 'classification_date' ) ;
#27 = CIRCLE ( 'NONE', #129, 18.99999999999999600 ) ;
#28 = DIRECTION ( 'NONE',  ( 1.000000000000000000, 0.0000000000000000000, 0.0000000000000000000 ) ) ;
#29 = AXIS2_PLACEMENT_3D ( 'NONE', #60, #59, #25 ) ;
#30 = ORIENTED_EDGE ( 'NONE', *, *, #116, .T. ) ;
#31 = CC_DESIGN_PERSON_AND_ORGANIZATION_ASSIGNMENT ( #97, #108, ( #3 ) ) ;
#32 = ORIENTED_EDGE ( 'NONE', *, *, #54, .F. ) ;
#33 = CARTESIAN_POINT ( 'NONE',  ( -0.7500000000000000000, 0.0000000000000000000, 0.0000000000000000000 ) ) ;
#34 = COORDINATED_UNIVERSAL_TIME_OFFSET ( 5, 0, .BEHIND. ) ;
#35 = CARTESIAN_POINT ( 'NONE',  ( -0.7500000000000000000, 0.0000000000000000000, 18.99999999999999600 ) ) ;
#36 =( NAMED_UNIT ( * ) PLANE_ANGLE_UNIT ( ) SI_UNIT ( $, .RADIAN. ) );
#37 = ORIENTED_EDGE ( 'NONE', *, *, #151, .T. ) ;
#38 = PRODUCT ( 'Web Model 46460_46460', 'Web Model 46460_46460', '', ( #113 ) ) ;
#39 = DIRECTION ( 'NONE',  ( 0.0000000000000000000, 0.0000000000000000000, -1.000000000000000000 ) ) ;
#40 = AXIS2_PLACEMENT_3D ( 'NONE', #47, #173, #149 ) ;
#41 = DATE_AND_TIME ( #76, #136 ) ;
#42 = ORIENTED_EDGE ( 'NONE', *, *, #142, .F. ) ;
#43 = CARTESIAN_POINT ( 'NONE',  ( -0.7500000000000000000, 2.326828918379970600E-015, -18.99999999999999600 ) ) ;
#44 = CC_DESIGN_DATE_AND_TIME_ASSIGNMENT ( #166, #26, ( #7 ) ) ;
#45 = APPROVAL_PERSON_ORGANIZATION ( #79, #67, #109 ) ;
#46 = CIRCLE ( 'NONE', #29, 18.99999999999999600 ) ;
#47 = CARTESIAN_POINT ( 'NONE',  ( 0.7500000000000000000, 0.0000000000000000000, 0.0000000000000000000 ) ) ;
#48 = APPROVAL_ROLE ( '' ) ;
#49 = CALENDAR_DATE ( 2018, 15, 3 ) ;
#50 = ORIENTED_EDGE ( 'NONE', *, *, #174, .F. ) ;
#51 = MANIFOLD_SOLID_BREP ( 'Boss-Extrude1', #131 ) ;
#52 = CC_DESIGN_SECURITY_CLASSIFICATION ( #7, ( #3 ) ) ;
#53 = CALENDAR_DATE ( 2018, 15, 3 ) ;
#54 = EDGE_CURVE ( 'NONE', #6, #81, #46, .T. ) ;
#55 = PERSON_AND_ORGANIZATION ( #114, #137 ) ;
#56 = EDGE_LOOP ( 'NONE', ( #87, #37 ) ) ;
#57 = LOCAL_TIME ( 14, 34, 0.0000000000000000000, #102 ) ;
#58 = CC_DESIGN_APPROVAL ( #1, ( #77 ) ) ;
#59 = DIRECTION ( 'NONE',  ( 1.000000000000000000, 0.0000000000000000000, 0.0000000000000000000 ) ) ;
#60 = CARTESIAN_POINT ( 'NONE',  ( 0.7500000000000000000, 0.0000000000000000000, 0.0000000000000000000 ) ) ;
#61 = AXIS2_PLACEMENT_3D ( 'NONE', #33, #90, #119 ) ;
#62 = APPROVAL_STATUS ( 'not_yet_approved' ) ;
#63 = FACE_OUTER_BOUND ( 'NONE', #20, .T. ) ;
#64 = DIRECTION ( 'NONE',  ( 0.0000000000000000000, 0.0000000000000000000, -1.000000000000000000 ) ) ;
#65 = PERSON_AND_ORGANIZATION ( #114, #137 ) ;
#66 = LINE ( 'NONE', #153, #118 ) ;
#67 = APPROVAL ( #93, 'UNSPECIFIED' ) ;
#68 = ORIENTED_EDGE ( 'NONE', *, *, #142, .T. ) ;
#69 = CARTESIAN_POINT ( 'NONE',  ( 0.7500000000000000000, 2.326828918379970600E-015, -18.99999999999999600 ) ) ;
#70 = PRODUCT_DEFINITION_SHAPE ( 'NONE', 'NONE',  #77 ) ;
#71 = VERTEX_POINT ( 'NONE', #43 ) ;
#72 = DIRECTION ( 'NONE',  ( 0.0000000000000000000, 0.0000000000000000000, -1.000000000000000000 ) ) ;
#73 = DIRECTION ( 'NONE',  ( 1.000000000000000000, 0.0000000000000000000, 0.0000000000000000000 ) ) ;
#74 =( NAMED_UNIT ( * ) SI_UNIT ( $, .STERADIAN. ) SOLID_ANGLE_UNIT ( ) );
#75 = SECURITY_CLASSIFICATION_LEVEL ( 'unclassified' ) ;
#76 = CALENDAR_DATE ( 2018, 15, 3 ) ;
#77 = PRODUCT_DEFINITION ( 'UNKNOWN', '', #3, #134 ) ;
#78 = APPROVAL_STATUS ( 'not_yet_approved' ) ;
#79 = PERSON_AND_ORGANIZATION ( #114, #137 ) ;
#80 = CIRCLE ( 'NONE', #117, 18.99999999999999600 ) ;
#81 = VERTEX_POINT ( 'NONE', #69 ) ;
#82 = APPROVAL ( #78, 'UNSPECIFIED' ) ;
#83 = ORIENTED_EDGE ( 'NONE', *, *, #123, .T. ) ;
#84 = APPROVAL_DATE_TIME ( #127, #67 ) ;
#85 = ADVANCED_FACE ( 'NONE', ( #156 ), #147, .F. ) ;
#86 = UNCERTAINTY_MEASURE_WITH_UNIT (LENGTH_MEASURE( 1.000000000000000100E-005 ), #152, 'distance_accuracy_value', 'NONE');
#87 = ORIENTED_EDGE ( 'NONE', *, *, #54, .T. ) ;
#88 = CC_DESIGN_DATE_AND_TIME_ASSIGNMENT ( #110, #168, ( #77 ) ) ;
#89 = COORDINATED_UNIVERSAL_TIME_OFFSET ( 5, 0, .BEHIND. ) ;
#90 = DIRECTION ( 'NONE',  ( 1.000000000000000000, 0.0000000000000000000, 0.0000000000000000000 ) ) ;
#91 = DIRECTION ( 'NONE',  ( 0.0000000000000000000, 0.0000000000000000000, 1.000000000000000000 ) ) ;
#92 = LOCAL_TIME ( 14, 34, 0.0000000000000000000, #132 ) ;
#93 = APPROVAL_STATUS ( 'not_yet_approved' ) ;
#94 = PERSON_AND_ORGANIZATION_ROLE ( 'design_owner' ) ;
#95 = LOCAL_TIME ( 14, 34, 0.0000000000000000000, #89 ) ;
#96 = DIRECTION ( 'NONE',  ( 1.000000000000000000, 0.0000000000000000000, 0.0000000000000000000 ) ) ;
#97 = PERSON_AND_ORGANIZATION ( #114, #137 ) ;
#98 =( GEOMETRIC_REPRESENTATION_CONTEXT ( 3 ) GLOBAL_UNCERTAINTY_ASSIGNED_CONTEXT ( ( #86 ) ) GLOBAL_UNIT_ASSIGNED_CONTEXT ( ( #152, #36, #74 ) ) REPRESENTATION_CONTEXT ( 'NONE', 'WORKASPACE' ) );
#99 = ADVANCED_BREP_SHAPE_REPRESENTATION ( 'Web Model 46460_46460', ( #51, #8 ), #98 ) ;
#100 = FACE_OUTER_BOUND ( 'NONE', #56, .T. ) ;
#101 = PERSON_AND_ORGANIZATION ( #114, #137 ) ;
#102 = COORDINATED_UNIVERSAL_TIME_OFFSET ( 5, 0, .BEHIND. ) ;
#103 = CARTESIAN_POINT ( 'NONE',  ( -0.7500000000000000000, 0.0000000000000000000, 0.0000000000000000000 ) ) ;
#104 = VECTOR ( 'NONE', #145, 1000.000000000000000 ) ;
#105 = DIRECTION ( 'NONE',  ( 1.000000000000000000, 0.0000000000000000000, 0.0000000000000000000 ) ) ;
#106 = CARTESIAN_POINT ( 'NONE',  ( 0.7500000000000000000, 0.0000000000000000000, 0.0000000000000000000 ) ) ;
#107 = APPROVAL_DATE_TIME ( #128, #82 ) ;
#108 = PERSON_AND_ORGANIZATION_ROLE ( 'design_supplier' ) ;
#109 = APPROVAL_ROLE ( '' ) ;
#110 = DATE_AND_TIME ( #5, #95 ) ;
#111 = CC_DESIGN_APPROVAL ( #82, ( #3 ) ) ;
#112 = CARTESIAN_POINT ( 'NONE',  ( 0.7500000000000000000, 0.0000000000000000000, 0.0000000000000000000 ) ) ;
#113 = MECHANICAL_CONTEXT ( 'NONE', #139, 'mechanical' ) ;
#114 = PERSON ( 'UNSPECIFIED', 'UNSPECIFIED', 'UNSPECIFIED', ('UNSPECIFIED'), ('UNSPECIFIED'), ('UNSPECIFIED') ) ;
#115 = ORIENTED_EDGE ( 'NONE', *, *, #174, .T. ) ;
#116 = EDGE_CURVE ( 'NONE', #71, #165, #12, .T. ) ;
#117 = AXIS2_PLACEMENT_3D ( 'NONE', #9, #105, #120 ) ;
#118 = VECTOR ( 'NONE', #18, 1000.000000000000000 ) ;
#119 = DIRECTION ( 'NONE',  ( 0.0000000000000000000, 0.0000000000000000000, -1.000000000000000000 ) ) ;
#120 = DIRECTION ( 'NONE',  ( 0.0000000000000000000, 0.0000000000000000000, -1.000000000000000000 ) ) ;
#121 = COORDINATED_UNIVERSAL_TIME_OFFSET ( 5, 0, .BEHIND. ) ;
#122 = CYLINDRICAL_SURFACE ( 'NONE', #146, 18.99999999999999600 ) ;
#123 = EDGE_CURVE ( 'NONE', #81, #71, #160, .T. ) ;
#124 = APPLICATION_PROTOCOL_DEFINITION ( 'international standard', 'config_control_design', 1994, #17 ) ;
#125 = DIRECTION ( 'NONE',  ( 1.000000000000000000, 0.0000000000000000000, 0.0000000000000000000 ) ) ;
#126 = ORIENTED_EDGE ( 'NONE', *, *, #116, .F. ) ;
#127 = DATE_AND_TIME ( #169, #57 ) ;
#128 = DATE_AND_TIME ( #53, #143 ) ;
#129 = AXIS2_PLACEMENT_3D ( 'NONE', #148, #28, #64 ) ;
#130 = EDGE_LOOP ( 'NONE', ( #42, #126 ) ) ;
#131 = CLOSED_SHELL ( 'NONE', ( #140, #141, #171, #85 ) ) ;
#132 = COORDINATED_UNIVERSAL_TIME_OFFSET ( 5, 0, .BEHIND. ) ;
#133 = SHAPE_DEFINITION_REPRESENTATION ( #70, #99 ) ;
#134 = DESIGN_CONTEXT ( 'detailed design', #17, 'design' ) ;
#135 = PLANE ( 'NONE',  #138 ) ;
#136 = LOCAL_TIME ( 14, 34, 0.0000000000000000000, #121 ) ;
#137 = ORGANIZATION ( 'UNSPECIFIED', 'UNSPECIFIED', '' ) ;
#138 = AXIS2_PLACEMENT_3D ( 'NONE', #112, #96, #39 ) ;
#139 = APPLICATION_CONTEXT ( 'configuration controlled 3d designs of mechanical parts and assemblies' ) ;
#140 = ADVANCED_FACE ( 'NONE', ( #63 ), #22, .T. ) ;
#141 = ADVANCED_FACE ( 'NONE', ( #172 ), #122, .T. ) ;
#142 = EDGE_CURVE ( 'NONE', #165, #71, #80, .T. ) ;
#143 = LOCAL_TIME ( 14, 34, 0.0000000000000000000, #34 ) ;
#144 = CC_DESIGN_PERSON_AND_ORGANIZATION_ASSIGNMENT ( #65, #94, ( #38 ) ) ;
#145 = DIRECTION ( 'NONE',  ( -1.000000000000000000, -0.0000000000000000000, -0.0000000000000000000 ) ) ;
#146 = AXIS2_PLACEMENT_3D ( 'NONE', #106, #11, #91 ) ;
#147 = PLANE ( 'NONE',  #61 ) ;
#148 = CARTESIAN_POINT ( 'NONE',  ( 0.7500000000000000000, 0.0000000000000000000, 0.0000000000000000000 ) ) ;
#149 = DIRECTION ( 'NONE',  ( 0.0000000000000000000, 0.0000000000000000000, 1.000000000000000000 ) ) ;
#150 = ORIENTED_EDGE ( 'NONE', *, *, #151, .F. ) ;
#151 = EDGE_CURVE ( 'NONE', #81, #6, #27, .T. ) ;
#152 =( LENGTH_UNIT ( ) NAMED_UNIT ( * ) SI_UNIT ( .MILLI., .METRE. ) );
#153 = CARTESIAN_POINT ( 'NONE',  ( 0.7500000000000000000, 0.0000000000000000000, 18.99999999999999600 ) ) ;
#154 = APPROVAL_DATE_TIME ( #41, #1 ) ;
#155 = PERSON_AND_ORGANIZATION_ROLE ( 'creator' ) ;
#156 = FACE_OUTER_BOUND ( 'NONE', #130, .T. ) ;
#157 = EDGE_LOOP ( 'NONE', ( #162, #32, #115, #68 ) ) ;
#158 = CC_DESIGN_PERSON_AND_ORGANIZATION_ASSIGNMENT ( #170, #14, ( #3 ) ) ;
#159 = APPROVAL_PERSON_ORGANIZATION ( #4, #1, #48 ) ;
#160 = LINE ( 'NONE', #163, #104 ) ;
#161 = AXIS2_PLACEMENT_3D ( 'NONE', #103, #73, #72 ) ;
#162 = ORIENTED_EDGE ( 'NONE', *, *, #123, .F. ) ;
#163 = CARTESIAN_POINT ( 'NONE',  ( 0.7500000000000000000, 2.326828918379970600E-015, -18.99999999999999600 ) ) ;
#164 = APPROVAL_PERSON_ORGANIZATION ( #101, #82, #175 ) ;
#165 = VERTEX_POINT ( 'NONE', #35 ) ;
#166 = DATE_AND_TIME ( #49, #92 ) ;
#167 = APPLICATION_PROTOCOL_DEFINITION ( 'international standard', 'config_control_design', 1994, #139 ) ;
#168 = DATE_TIME_ROLE ( 'creation_date' ) ;
#169 = CALENDAR_DATE ( 2018, 15, 3 ) ;
#170 = PERSON_AND_ORGANIZATION ( #114, #137 ) ;
#171 = ADVANCED_FACE ( 'NONE', ( #100 ), #135, .T. ) ;
#172 = FACE_OUTER_BOUND ( 'NONE', #157, .T. ) ;
#173 = DIRECTION ( 'NONE',  ( -1.000000000000000000, -0.0000000000000000000, -0.0000000000000000000 ) ) ;
#174 = EDGE_CURVE ( 'NONE', #6, #165, #66, .T. ) ;
#175 = APPROVAL_ROLE ( '' ) ;
ENDSEC;
END-ISO-10303-21;
