ISO-10303-21;
HEADER;
FILE_DESCRIPTION (( 'STEP AP203' ),
    '1' );
FILE_NAME ('Web Model 83102.STEP',
    '2017-02-01T15:09:54',
    ( '' ),
    ( '' ),
    'SwSTEP 2.0',
    'SolidWorks 2016',
    '' );
FILE_SCHEMA (( 'CONFIG_CONTROL_DESIGN' ));
ENDSEC;

DATA;
#1 = SECURITY_CLASSIFICATION ( '', '', #120 ) ;
#2 = FACE_OUTER_BOUND ( 'NONE', #47, .T. ) ;
#3 = EDGE_CURVE ( 'NONE', #37, #113, #8, .T. ) ;
#4 = LOCAL_TIME ( 10, 9, 54.00000000000000000, #165 ) ;
#5 = LINE ( 'NONE', #155, #141 ) ;
#6 = COORDINATED_UNIVERSAL_TIME_OFFSET ( 5, 0, .BEHIND. ) ;
#7 = PERSON_AND_ORGANIZATION ( #68, #34 ) ;
#8 = CIRCLE ( 'NONE', #36, 10.00000000000000000 ) ;
#9 = CALENDAR_DATE ( 2017, 1, 2 ) ;
#10 =( NAMED_UNIT ( * ) PLANE_ANGLE_UNIT ( ) SI_UNIT ( $, .RADIAN. ) );
#11 = CC_DESIGN_APPROVAL ( #55, ( #82 ) ) ;
#12 = CARTESIAN_POINT ( 'NONE',  ( 0.0000000000000000000, 0.0000000000000000000, 0.0000000000000000000 ) ) ;
#13 = CARTESIAN_POINT ( 'NONE',  ( 0.0000000000000000000, 0.0000000000000000000, 0.2000000000000000100 ) ) ;
#14 = ADVANCED_FACE ( 'NONE', ( #43 ), #79, .T. ) ;
#15 = DIRECTION ( 'NONE',  ( 0.0000000000000000000, 0.0000000000000000000, 1.000000000000000000 ) ) ;
#16 = AXIS2_PLACEMENT_3D ( 'NONE', #168, #97, #131 ) ;
#17 = DATE_AND_TIME ( #173, #4 ) ;
#18 = VERTEX_POINT ( 'NONE', #157 ) ;
#19 = APPROVAL_DATE_TIME ( #114, #135 ) ;
#20 = LINE ( 'NONE', #60, #140 ) ;
#21 = AXIS2_PLACEMENT_3D ( 'NONE', #100, #26, #103 ) ;
#22 = ADVANCED_FACE ( 'NONE', ( #2 ), #147, .F. ) ;
#23 = DIRECTION ( 'NONE',  ( -1.000000000000000000, 0.0000000000000000000, 0.0000000000000000000 ) ) ;
#24 = CARTESIAN_POINT ( 'NONE',  ( 10.00000000000000000, 1.224646799147353300E-015, 0.0000000000000000000 ) ) ;
#25 = CLOSED_SHELL ( 'NONE', ( #86, #14, #59, #22 ) ) ;
#26 = DIRECTION ( 'NONE',  ( 0.0000000000000000000, 0.0000000000000000000, 1.000000000000000000 ) ) ;
#27 =( LENGTH_UNIT ( ) NAMED_UNIT ( * ) SI_UNIT ( .MILLI., .METRE. ) );
#28 = DIRECTION ( 'NONE',  ( 1.000000000000000000, 0.0000000000000000000, -0.0000000000000000000 ) ) ;
#29 = CIRCLE ( 'NONE', #96, 10.00000000000000000 ) ;
#30 = APPROVAL_PERSON_ORGANIZATION ( #38, #63, #107 ) ;
#31 = APPLICATION_CONTEXT ( 'configuration controlled 3d designs of mechanical parts and assemblies' ) ;
#32 = PERSON_AND_ORGANIZATION_ROLE ( 'design_supplier' ) ;
#33 = ADVANCED_BREP_SHAPE_REPRESENTATION ( 'Web Model 83102', ( #104, #72 ), #94 ) ;
#34 = ORGANIZATION ( 'UNSPECIFIED', 'UNSPECIFIED', '' ) ;
#35 = ORIENTED_EDGE ( 'NONE', *, *, #117, .F. ) ;
#36 = AXIS2_PLACEMENT_3D ( 'NONE', #12, #88, #101 ) ;
#37 = VERTEX_POINT ( 'NONE', #159 ) ;
#38 = PERSON_AND_ORGANIZATION ( #68, #34 ) ;
#39 = ORIENTED_EDGE ( 'NONE', *, *, #3, .F. ) ;
#40 = DIRECTION ( 'NONE',  ( -0.0000000000000000000, -0.0000000000000000000, -1.000000000000000000 ) ) ;
#41 = DIRECTION ( 'NONE',  ( 0.0000000000000000000, 0.0000000000000000000, 1.000000000000000000 ) ) ;
#42 = APPROVAL_STATUS ( 'not_yet_approved' ) ;
#43 = FACE_OUTER_BOUND ( 'NONE', #132, .T. ) ;
#44 = CC_DESIGN_DATE_AND_TIME_ASSIGNMENT ( #84, #77, ( #82 ) ) ;
#45 = ORIENTED_EDGE ( 'NONE', *, *, #163, .F. ) ;
#46 = AXIS2_PLACEMENT_3D ( 'NONE', #49, #169, #28 ) ;
#47 = EDGE_LOOP ( 'NONE', ( #39, #45 ) ) ;
#48 = PERSON_AND_ORGANIZATION ( #68, #34 ) ;
#49 = CARTESIAN_POINT ( 'NONE',  ( 0.0000000000000000000, 0.0000000000000000000, 0.2000000000000000100 ) ) ;
#50 = ORIENTED_EDGE ( 'NONE', *, *, #167, .F. ) ;
#51 = CC_DESIGN_PERSON_AND_ORGANIZATION_ASSIGNMENT ( #154, #32, ( #67 ) ) ;
#52 = APPLICATION_PROTOCOL_DEFINITION ( 'international standard', 'config_control_design', 1994, #31 ) ;
#53 = EDGE_LOOP ( 'NONE', ( #50, #70, #108, #151 ) ) ;
#54 = APPROVAL_STATUS ( 'not_yet_approved' ) ;
#55 = APPROVAL ( #76, 'UNSPECIFIED' ) ;
#56 = EDGE_CURVE ( 'NONE', #18, #37, #5, .T. ) ;
#57 = ORIENTED_EDGE ( 'NONE', *, *, #56, .T. ) ;
#58 = CC_DESIGN_DATE_AND_TIME_ASSIGNMENT ( #98, #171, ( #1 ) ) ;
#59 = ADVANCED_FACE ( 'NONE', ( #150 ), #87, .T. ) ;
#60 = CARTESIAN_POINT ( 'NONE',  ( 10.00000000000000000, 1.224646799147353300E-015, 0.2000000000000000100 ) ) ;
#61 = CIRCLE ( 'NONE', #21, 10.00000000000000000 ) ;
#62 = MECHANICAL_CONTEXT ( 'NONE', #133, 'mechanical' ) ;
#63 = APPROVAL ( #42, 'UNSPECIFIED' ) ;
#64 = ORIENTED_EDGE ( 'NONE', *, *, #124, .T. ) ;
#65 = FACE_OUTER_BOUND ( 'NONE', #53, .T. ) ;
#66 = PERSON_AND_ORGANIZATION ( #68, #34 ) ;
#67 = PRODUCT_DEFINITION_FORMATION_WITH_SPECIFIED_SOURCE ( 'ANY', '', #146, .NOT_KNOWN. ) ;
#68 = PERSON ( 'UNSPECIFIED', 'UNSPECIFIED', 'UNSPECIFIED', ('UNSPECIFIED'), ('UNSPECIFIED'), ('UNSPECIFIED') ) ;
#69 = AXIS2_PLACEMENT_3D ( 'NONE', #73, #41, #160 ) ;
#70 = ORIENTED_EDGE ( 'NONE', *, *, #117, .T. ) ;
#71 = APPROVAL_PERSON_ORGANIZATION ( #48, #135, #148 ) ;
#72 = AXIS2_PLACEMENT_3D ( 'NONE', #130, #15, #162 ) ;
#73 = CARTESIAN_POINT ( 'NONE',  ( 0.0000000000000000000, 0.0000000000000000000, 0.0000000000000000000 ) ) ;
#74 = CIRCLE ( 'NONE', #69, 10.00000000000000000 ) ;
#75 = CC_DESIGN_APPROVAL ( #63, ( #1 ) ) ;
#76 = APPROVAL_STATUS ( 'not_yet_approved' ) ;
#77 = DATE_TIME_ROLE ( 'creation_date' ) ;
#78 = PERSON_AND_ORGANIZATION_ROLE ( 'creator' ) ;
#79 = CYLINDRICAL_SURFACE ( 'NONE', #139, 10.00000000000000000 ) ;
#80 = LOCAL_TIME ( 10, 9, 54.00000000000000000, #6 ) ;
#81 = CC_DESIGN_PERSON_AND_ORGANIZATION_ASSIGNMENT ( #66, #134, ( #1 ) ) ;
#82 = PRODUCT_DEFINITION ( 'UNKNOWN', '', #67, #111 ) ;
#83 = ORIENTED_EDGE ( 'NONE', *, *, #3, .T. ) ;
#84 = DATE_AND_TIME ( #149, #137 ) ;
#85 = PERSON_AND_ORGANIZATION ( #68, #34 ) ;
#86 = ADVANCED_FACE ( 'NONE', ( #65 ), #95, .T. ) ;
#87 = PLANE ( 'NONE',  #46 ) ;
#88 = DIRECTION ( 'NONE',  ( 0.0000000000000000000, 0.0000000000000000000, 1.000000000000000000 ) ) ;
#89 = DIRECTION ( 'NONE',  ( -0.0000000000000000000, -0.0000000000000000000, -1.000000000000000000 ) ) ;
#90 = CALENDAR_DATE ( 2017, 1, 2 ) ;
#91 = PERSON_AND_ORGANIZATION_ROLE ( 'design_owner' ) ;
#92 = APPROVAL_PERSON_ORGANIZATION ( #85, #55, #172 ) ;
#93 = PRODUCT_DEFINITION_SHAPE ( 'NONE', 'NONE',  #82 ) ;
#94 =( GEOMETRIC_REPRESENTATION_CONTEXT ( 3 ) GLOBAL_UNCERTAINTY_ASSIGNED_CONTEXT ( ( #109 ) ) GLOBAL_UNIT_ASSIGNED_CONTEXT ( ( #27, #10, #144 ) ) REPRESENTATION_CONTEXT ( 'NONE', 'WORKASPACE' ) );
#95 = CYLINDRICAL_SURFACE ( 'NONE', #125, 10.00000000000000000 ) ;
#96 = AXIS2_PLACEMENT_3D ( 'NONE', #119, #158, #116 ) ;
#97 = DIRECTION ( 'NONE',  ( 0.0000000000000000000, 0.0000000000000000000, 1.000000000000000000 ) ) ;
#98 = DATE_AND_TIME ( #138, #175 ) ;
#99 = CC_DESIGN_APPROVAL ( #135, ( #67 ) ) ;
#100 = CARTESIAN_POINT ( 'NONE',  ( 0.0000000000000000000, 0.0000000000000000000, 0.2000000000000000100 ) ) ;
#101 = DIRECTION ( 'NONE',  ( 1.000000000000000000, 0.0000000000000000000, 0.0000000000000000000 ) ) ;
#102 = DIRECTION ( 'NONE',  ( -0.0000000000000000000, -0.0000000000000000000, -1.000000000000000000 ) ) ;
#103 = DIRECTION ( 'NONE',  ( 1.000000000000000000, 0.0000000000000000000, 0.0000000000000000000 ) ) ;
#104 = MANIFOLD_SOLID_BREP ( 'Extrude1', #25 ) ;
#105 = SHAPE_DEFINITION_REPRESENTATION ( #93, #33 ) ;
#106 = PERSON_AND_ORGANIZATION ( #68, #34 ) ;
#107 = APPROVAL_ROLE ( '' ) ;
#108 = ORIENTED_EDGE ( 'NONE', *, *, #163, .T. ) ;
#109 = UNCERTAINTY_MEASURE_WITH_UNIT (LENGTH_MEASURE( 1.000000000000000100E-005 ), #27, 'distance_accuracy_value', 'NONE');
#110 = COORDINATED_UNIVERSAL_TIME_OFFSET ( 5, 0, .BEHIND. ) ;
#111 = DESIGN_CONTEXT ( 'detailed design', #31, 'design' ) ;
#112 = ORIENTED_EDGE ( 'NONE', *, *, #167, .T. ) ;
#113 = VERTEX_POINT ( 'NONE', #24 ) ;
#114 = DATE_AND_TIME ( #9, #80 ) ;
#115 = CARTESIAN_POINT ( 'NONE',  ( 0.0000000000000000000, 0.0000000000000000000, 0.2000000000000000100 ) ) ;
#116 = DIRECTION ( 'NONE',  ( 1.000000000000000000, 0.0000000000000000000, 0.0000000000000000000 ) ) ;
#117 = EDGE_CURVE ( 'NONE', #129, #113, #20, .T. ) ;
#118 = DIRECTION ( 'NONE',  ( -0.0000000000000000000, -0.0000000000000000000, -1.000000000000000000 ) ) ;
#119 = CARTESIAN_POINT ( 'NONE',  ( 0.0000000000000000000, 0.0000000000000000000, 0.2000000000000000100 ) ) ;
#120 = SECURITY_CLASSIFICATION_LEVEL ( 'unclassified' ) ;
#121 = CC_DESIGN_PERSON_AND_ORGANIZATION_ASSIGNMENT ( #143, #161, ( #67 ) ) ;
#122 = CC_DESIGN_SECURITY_CLASSIFICATION ( #1, ( #67 ) ) ;
#123 = EDGE_LOOP ( 'NONE', ( #64, #112 ) ) ;
#124 = EDGE_CURVE ( 'NONE', #18, #129, #61, .T. ) ;
#125 = AXIS2_PLACEMENT_3D ( 'NONE', #13, #89, #170 ) ;
#126 = LOCAL_TIME ( 10, 9, 54.00000000000000000, #164 ) ;
#127 = APPROVAL_DATE_TIME ( #136, #63 ) ;
#128 = COORDINATED_UNIVERSAL_TIME_OFFSET ( 5, 0, .BEHIND. ) ;
#129 = VERTEX_POINT ( 'NONE', #145 ) ;
#130 = CARTESIAN_POINT ( 'NONE',  ( 0.0000000000000000000, 0.0000000000000000000, 0.0000000000000000000 ) ) ;
#131 = DIRECTION ( 'NONE',  ( 1.000000000000000000, 0.0000000000000000000, -0.0000000000000000000 ) ) ;
#132 = EDGE_LOOP ( 'NONE', ( #35, #153, #57, #83 ) ) ;
#133 = APPLICATION_CONTEXT ( 'configuration controlled 3d designs of mechanical parts and assemblies' ) ;
#134 = PERSON_AND_ORGANIZATION_ROLE ( 'classification_officer' ) ;
#135 = APPROVAL ( #54, 'UNSPECIFIED' ) ;
#136 = DATE_AND_TIME ( #90, #126 ) ;
#137 = LOCAL_TIME ( 10, 9, 54.00000000000000000, #128 ) ;
#138 = CALENDAR_DATE ( 2017, 1, 2 ) ;
#139 = AXIS2_PLACEMENT_3D ( 'NONE', #115, #102, #23 ) ;
#140 = VECTOR ( 'NONE', #118, 1000.000000000000000 ) ;
#141 = VECTOR ( 'NONE', #40, 1000.000000000000000 ) ;
#142 = PRODUCT_RELATED_PRODUCT_CATEGORY ( 'detail', '', ( #146 ) ) ;
#143 = PERSON_AND_ORGANIZATION ( #68, #34 ) ;
#144 =( NAMED_UNIT ( * ) SI_UNIT ( $, .STERADIAN. ) SOLID_ANGLE_UNIT ( ) );
#145 = CARTESIAN_POINT ( 'NONE',  ( 10.00000000000000000, 1.224646799147353300E-015, 0.2000000000000000100 ) ) ;
#146 = PRODUCT ( 'Web Model 83102', 'Web Model 83102', '', ( #62 ) ) ;
#147 = PLANE ( 'NONE',  #16 ) ;
#148 = APPROVAL_ROLE ( '' ) ;
#149 = CALENDAR_DATE ( 2017, 1, 2 ) ;
#150 = FACE_OUTER_BOUND ( 'NONE', #123, .T. ) ;
#151 = ORIENTED_EDGE ( 'NONE', *, *, #56, .F. ) ;
#152 = APPROVAL_DATE_TIME ( #17, #55 ) ;
#153 = ORIENTED_EDGE ( 'NONE', *, *, #124, .F. ) ;
#154 = PERSON_AND_ORGANIZATION ( #68, #34 ) ;
#155 = CARTESIAN_POINT ( 'NONE',  ( -10.00000000000000000, 0.0000000000000000000, 0.2000000000000000100 ) ) ;
#156 = CC_DESIGN_PERSON_AND_ORGANIZATION_ASSIGNMENT ( #106, #91, ( #146 ) ) ;
#157 = CARTESIAN_POINT ( 'NONE',  ( -10.00000000000000000, 0.0000000000000000000, 0.2000000000000000100 ) ) ;
#158 = DIRECTION ( 'NONE',  ( 0.0000000000000000000, 0.0000000000000000000, 1.000000000000000000 ) ) ;
#159 = CARTESIAN_POINT ( 'NONE',  ( -10.00000000000000000, 0.0000000000000000000, 0.0000000000000000000 ) ) ;
#160 = DIRECTION ( 'NONE',  ( 1.000000000000000000, 0.0000000000000000000, 0.0000000000000000000 ) ) ;
#161 = PERSON_AND_ORGANIZATION_ROLE ( 'creator' ) ;
#162 = DIRECTION ( 'NONE',  ( 1.000000000000000000, 0.0000000000000000000, 0.0000000000000000000 ) ) ;
#163 = EDGE_CURVE ( 'NONE', #113, #37, #74, .T. ) ;
#164 = COORDINATED_UNIVERSAL_TIME_OFFSET ( 5, 0, .BEHIND. ) ;
#165 = COORDINATED_UNIVERSAL_TIME_OFFSET ( 5, 0, .BEHIND. ) ;
#166 = CC_DESIGN_PERSON_AND_ORGANIZATION_ASSIGNMENT ( #7, #78, ( #82 ) ) ;
#167 = EDGE_CURVE ( 'NONE', #129, #18, #29, .T. ) ;
#168 = CARTESIAN_POINT ( 'NONE',  ( 0.0000000000000000000, 0.0000000000000000000, 0.0000000000000000000 ) ) ;
#169 = DIRECTION ( 'NONE',  ( 0.0000000000000000000, 0.0000000000000000000, 1.000000000000000000 ) ) ;
#170 = DIRECTION ( 'NONE',  ( -1.000000000000000000, 0.0000000000000000000, 0.0000000000000000000 ) ) ;
#171 = DATE_TIME_ROLE ( 'classification_date' ) ;
#172 = APPROVAL_ROLE ( '' ) ;
#173 = CALENDAR_DATE ( 2017, 1, 2 ) ;
#174 = APPLICATION_PROTOCOL_DEFINITION ( 'international standard', 'config_control_design', 1994, #133 ) ;
#175 = LOCAL_TIME ( 10, 9, 54.00000000000000000, #110 ) ;
ENDSEC;
END-ISO-10303-21;
