ISO-10303-21;
HEADER;
FILE_DESCRIPTION (( 'STEP AP203' ),
    '1' );
FILE_NAME ('Web Model 49124.STEP',
    '2017-01-31T15:22:04',
    ( '' ),
    ( '' ),
    'SwSTEP 2.0',
    'SolidWorks 2016',
    '' );
FILE_SCHEMA (( 'CONFIG_CONTROL_DESIGN' ));
ENDSEC;

DATA;
#1 = CC_DESIGN_APPROVAL ( #12, ( #166 ) ) ;
#2 = APPROVAL_ROLE ( '' ) ;
#3 = AXIS2_PLACEMENT_3D ( 'NONE', #75, #124, #174 ) ;
#4 = MECHANICAL_CONTEXT ( 'NONE', #97, 'mechanical' ) ;
#5 = APPROVAL ( #73, 'UNSPECIFIED' ) ;
#6 = COORDINATED_UNIVERSAL_TIME_OFFSET ( 5, 0, .BEHIND. ) ;
#7 = ORIENTED_EDGE ( 'NONE', *, *, #70, .F. ) ;
#8 = FACE_OUTER_BOUND ( 'NONE', #56, .T. ) ;
#9 = DIRECTION ( 'NONE',  ( 0.0000000000000000000, 0.0000000000000000000, 1.000000000000000000 ) ) ;
#10 = PRODUCT_RELATED_PRODUCT_CATEGORY ( 'detail', '', ( #113 ) ) ;
#11 = APPROVAL_PERSON_ORGANIZATION ( #86, #5, #84 ) ;
#12 = APPROVAL ( #40, 'UNSPECIFIED' ) ;
#13 = ORIENTED_EDGE ( 'NONE', *, *, #53, .T. ) ;
#14 = CALENDAR_DATE ( 2017, 31, 1 ) ;
#15 = PERSON_AND_ORGANIZATION ( #51, #64 ) ;
#16 = ADVANCED_FACE ( 'NONE', ( #101 ), #107, .T. ) ;
#17 = ADVANCED_FACE ( 'NONE', ( #29 ), #63, .F. ) ;
#18 = VERTEX_POINT ( 'NONE', #46 ) ;
#19 = PERSON_AND_ORGANIZATION ( #51, #64 ) ;
#20 = LOCAL_TIME ( 10, 22, 4.000000000000000000, #172 ) ;
#21 = AXIS2_PLACEMENT_3D ( 'NONE', #32, #93, #155 ) ;
#22 = DIRECTION ( 'NONE',  ( 0.0000000000000000000, 0.0000000000000000000, 1.000000000000000000 ) ) ;
#23 = DIRECTION ( 'NONE',  ( 1.000000000000000000, 0.0000000000000000000, 0.0000000000000000000 ) ) ;
#24 = EDGE_LOOP ( 'NONE', ( #61, #37 ) ) ;
#25 = CALENDAR_DATE ( 2017, 31, 1 ) ;
#26 = EDGE_LOOP ( 'NONE', ( #111, #167, #44, #126 ) ) ;
#27 = APPLICATION_PROTOCOL_DEFINITION ( 'international standard', 'config_control_design', 1994, #97 ) ;
#28 = AXIS2_PLACEMENT_3D ( 'NONE', #30, #131, #130 ) ;
#29 = FACE_OUTER_BOUND ( 'NONE', #24, .T. ) ;
#30 = CARTESIAN_POINT ( 'NONE',  ( 0.0000000000000000000, 0.0000000000000000000, 0.0000000000000000000 ) ) ;
#31 = APPROVAL_PERSON_ORGANIZATION ( #132, #12, #2 ) ;
#32 = CARTESIAN_POINT ( 'NONE',  ( 0.0000000000000000000, 0.0000000000000000000, 0.0000000000000000000 ) ) ;
#33 = PERSON_AND_ORGANIZATION ( #51, #64 ) ;
#34 = ORIENTED_EDGE ( 'NONE', *, *, #168, .T. ) ;
#35 = CC_DESIGN_DATE_AND_TIME_ASSIGNMENT ( #110, #158, ( #175 ) ) ;
#36 = LOCAL_TIME ( 10, 22, 4.000000000000000000, #151 ) ;
#37 = ORIENTED_EDGE ( 'NONE', *, *, #141, .F. ) ;
#38 = APPLICATION_PROTOCOL_DEFINITION ( 'international standard', 'config_control_design', 1994, #42 ) ;
#39 = PERSON_AND_ORGANIZATION_ROLE ( 'creator' ) ;
#40 = APPROVAL_STATUS ( 'not_yet_approved' ) ;
#41 = CC_DESIGN_PERSON_AND_ORGANIZATION_ASSIGNMENT ( #96, #160, ( #113 ) ) ;
#42 = APPLICATION_CONTEXT ( 'configuration controlled 3d designs of mechanical parts and assemblies' ) ;
#43 = DATE_AND_TIME ( #25, #82 ) ;
#44 = ORIENTED_EDGE ( 'NONE', *, *, #65, .T. ) ;
#45 = EDGE_CURVE ( 'NONE', #18, #115, #92, .T. ) ;
#46 = CARTESIAN_POINT ( 'NONE',  ( 4.500000000000000000, 0.0000000000000000000, -2.000000000000000000 ) ) ;
#47 = DIRECTION ( 'NONE',  ( 0.0000000000000000000, 0.0000000000000000000, 1.000000000000000000 ) ) ;
#48 = CARTESIAN_POINT ( 'NONE',  ( -4.500000000000000000, 5.510910596163088600E-016, -2.000000000000000000 ) ) ;
#49 = PERSON_AND_ORGANIZATION ( #51, #64 ) ;
#50 = VERTEX_POINT ( 'NONE', #77 ) ;
#51 = PERSON ( 'UNSPECIFIED', 'UNSPECIFIED', 'UNSPECIFIED', ('UNSPECIFIED'), ('UNSPECIFIED'), ('UNSPECIFIED') ) ;
#52 = DIRECTION ( 'NONE',  ( 0.0000000000000000000, 0.0000000000000000000, 1.000000000000000000 ) ) ;
#53 = EDGE_CURVE ( 'NONE', #143, #50, #171, .T. ) ;
#54 = DATE_AND_TIME ( #125, #161 ) ;
#55 = CC_DESIGN_PERSON_AND_ORGANIZATION_ASSIGNMENT ( #19, #144, ( #166 ) ) ;
#56 = EDGE_LOOP ( 'NONE', ( #129, #34, #7, #95 ) ) ;
#57 = PERSON_AND_ORGANIZATION_ROLE ( 'design_supplier' ) ;
#58 =( NAMED_UNIT ( * ) PLANE_ANGLE_UNIT ( ) SI_UNIT ( $, .RADIAN. ) );
#59 = ORIENTED_EDGE ( 'NONE', *, *, #70, .T. ) ;
#60 = AXIS2_PLACEMENT_3D ( 'NONE', #135, #47, #164 ) ;
#61 = ORIENTED_EDGE ( 'NONE', *, *, #45, .F. ) ;
#62 = CARTESIAN_POINT ( 'NONE',  ( 4.500000000000000000, 0.0000000000000000000, -2.000000000000000000 ) ) ;
#63 = PLANE ( 'NONE',  #3 ) ;
#64 = ORGANIZATION ( 'UNSPECIFIED', 'UNSPECIFIED', '' ) ;
#65 = EDGE_CURVE ( 'NONE', #18, #50, #104, .T. ) ;
#66 = FACE_OUTER_BOUND ( 'NONE', #26, .T. ) ;
#67 = CYLINDRICAL_SURFACE ( 'NONE', #157, 4.500000000000000000 ) ;
#68 = DESIGN_CONTEXT ( 'detailed design', #42, 'design' ) ;
#69 = CC_DESIGN_PERSON_AND_ORGANIZATION_ASSIGNMENT ( #121, #39, ( #149 ) ) ;
#70 = EDGE_CURVE ( 'NONE', #50, #143, #119, .T. ) ;
#71 = SECURITY_CLASSIFICATION_LEVEL ( 'unclassified' ) ;
#72 = CYLINDRICAL_SURFACE ( 'NONE', #114, 4.500000000000000000 ) ;
#73 = APPROVAL_STATUS ( 'not_yet_approved' ) ;
#74 = ADVANCED_FACE ( 'NONE', ( #66 ), #67, .T. ) ;
#75 = CARTESIAN_POINT ( 'NONE',  ( 0.0000000000000000000, 0.0000000000000000000, -2.000000000000000000 ) ) ;
#76 = COORDINATED_UNIVERSAL_TIME_OFFSET ( 5, 0, .BEHIND. ) ;
#77 = CARTESIAN_POINT ( 'NONE',  ( 4.500000000000000000, 0.0000000000000000000, 0.0000000000000000000 ) ) ;
#78 = CALENDAR_DATE ( 2017, 31, 1 ) ;
#79 = CC_DESIGN_SECURITY_CLASSIFICATION ( #166, ( #149 ) ) ;
#80 = APPROVAL_PERSON_ORGANIZATION ( #15, #91, #98 ) ;
#81 = CARTESIAN_POINT ( 'NONE',  ( 0.0000000000000000000, 0.0000000000000000000, -2.000000000000000000 ) ) ;
#82 = LOCAL_TIME ( 10, 22, 4.000000000000000000, #6 ) ;
#83 = VECTOR ( 'NONE', #106, 1000.000000000000000 ) ;
#84 = APPROVAL_ROLE ( '' ) ;
#85 =( NAMED_UNIT ( * ) SI_UNIT ( $, .STERADIAN. ) SOLID_ANGLE_UNIT ( ) );
#86 = PERSON_AND_ORGANIZATION ( #51, #64 ) ;
#87 = LOCAL_TIME ( 10, 22, 4.000000000000000000, #139 ) ;
#88 = VECTOR ( 'NONE', #52, 1000.000000000000000 ) ;
#89 = CARTESIAN_POINT ( 'NONE',  ( 0.0000000000000000000, 0.0000000000000000000, -2.000000000000000000 ) ) ;
#90 = DIRECTION ( 'NONE',  ( 0.0000000000000000000, 0.0000000000000000000, 1.000000000000000000 ) ) ;
#91 = APPROVAL ( #146, 'UNSPECIFIED' ) ;
#92 = CIRCLE ( 'NONE', #60, 4.500000000000000000 ) ;
#93 = DIRECTION ( 'NONE',  ( 0.0000000000000000000, 0.0000000000000000000, 1.000000000000000000 ) ) ;
#94 = CARTESIAN_POINT ( 'NONE',  ( -4.500000000000000000, 5.510910596163088600E-016, 0.0000000000000000000 ) ) ;
#95 = ORIENTED_EDGE ( 'NONE', *, *, #65, .F. ) ;
#96 = PERSON_AND_ORGANIZATION ( #51, #64 ) ;
#97 = APPLICATION_CONTEXT ( 'configuration controlled 3d designs of mechanical parts and assemblies' ) ;
#98 = APPROVAL_ROLE ( '' ) ;
#99 = AXIS2_PLACEMENT_3D ( 'NONE', #122, #173, #123 ) ;
#100 = PERSON_AND_ORGANIZATION_ROLE ( 'creator' ) ;
#101 = FACE_OUTER_BOUND ( 'NONE', #169, .T. ) ;
#102 = CC_DESIGN_APPROVAL ( #5, ( #149 ) ) ;
#103 = MANIFOLD_SOLID_BREP ( 'Extrude1', #156 ) ;
#104 = LINE ( 'NONE', #62, #83 ) ;
#105 = CC_DESIGN_PERSON_AND_ORGANIZATION_ASSIGNMENT ( #33, #100, ( #175 ) ) ;
#106 = DIRECTION ( 'NONE',  ( 0.0000000000000000000, 0.0000000000000000000, 1.000000000000000000 ) ) ;
#107 = PLANE ( 'NONE',  #137 ) ;
#108 = CARTESIAN_POINT ( 'NONE',  ( 0.0000000000000000000, 0.0000000000000000000, -2.000000000000000000 ) ) ;
#109 = ADVANCED_BREP_SHAPE_REPRESENTATION ( 'Web Model 49124', ( #103, #28 ), #170 ) ;
#110 = DATE_AND_TIME ( #14, #87 ) ;
#111 = ORIENTED_EDGE ( 'NONE', *, *, #168, .F. ) ;
#112 = DIRECTION ( 'NONE',  ( 1.000000000000000000, 0.0000000000000000000, 0.0000000000000000000 ) ) ;
#113 = PRODUCT ( 'Web Model 49124', 'Web Model 49124', '', ( #4 ) ) ;
#114 = AXIS2_PLACEMENT_3D ( 'NONE', #81, #9, #23 ) ;
#115 = VERTEX_POINT ( 'NONE', #48 ) ;
#116 = CC_DESIGN_PERSON_AND_ORGANIZATION_ASSIGNMENT ( #49, #57, ( #149 ) ) ;
#117 =( LENGTH_UNIT ( ) NAMED_UNIT ( * ) SI_UNIT ( .MILLI., .METRE. ) );
#118 = APPROVAL_DATE_TIME ( #43, #12 ) ;
#119 = CIRCLE ( 'NONE', #21, 4.500000000000000000 ) ;
#120 = CC_DESIGN_APPROVAL ( #91, ( #175 ) ) ;
#121 = PERSON_AND_ORGANIZATION ( #51, #64 ) ;
#122 = CARTESIAN_POINT ( 'NONE',  ( 0.0000000000000000000, 0.0000000000000000000, 0.0000000000000000000 ) ) ;
#123 = DIRECTION ( 'NONE',  ( 1.000000000000000000, 0.0000000000000000000, 0.0000000000000000000 ) ) ;
#124 = DIRECTION ( 'NONE',  ( 0.0000000000000000000, 0.0000000000000000000, 1.000000000000000000 ) ) ;
#125 = CALENDAR_DATE ( 2017, 31, 1 ) ;
#126 = ORIENTED_EDGE ( 'NONE', *, *, #53, .F. ) ;
#127 = CARTESIAN_POINT ( 'NONE',  ( -4.500000000000000000, 5.510910596163088600E-016, -2.000000000000000000 ) ) ;
#128 = DIRECTION ( 'NONE',  ( 1.000000000000000000, 0.0000000000000000000, 0.0000000000000000000 ) ) ;
#129 = ORIENTED_EDGE ( 'NONE', *, *, #45, .T. ) ;
#130 = DIRECTION ( 'NONE',  ( 1.000000000000000000, 0.0000000000000000000, 0.0000000000000000000 ) ) ;
#131 = DIRECTION ( 'NONE',  ( 0.0000000000000000000, 0.0000000000000000000, 1.000000000000000000 ) ) ;
#132 = PERSON_AND_ORGANIZATION ( #51, #64 ) ;
#133 = AXIS2_PLACEMENT_3D ( 'NONE', #108, #22, #128 ) ;
#134 = CALENDAR_DATE ( 2017, 31, 1 ) ;
#135 = CARTESIAN_POINT ( 'NONE',  ( 0.0000000000000000000, 0.0000000000000000000, -2.000000000000000000 ) ) ;
#136 = CARTESIAN_POINT ( 'NONE',  ( 0.0000000000000000000, 0.0000000000000000000, 0.0000000000000000000 ) ) ;
#137 = AXIS2_PLACEMENT_3D ( 'NONE', #136, #90, #163 ) ;
#138 = DATE_AND_TIME ( #134, #20 ) ;
#139 = COORDINATED_UNIVERSAL_TIME_OFFSET ( 5, 0, .BEHIND. ) ;
#140 = PRODUCT_DEFINITION_SHAPE ( 'NONE', 'NONE',  #175 ) ;
#141 = EDGE_CURVE ( 'NONE', #115, #18, #162, .T. ) ;
#142 = DATE_TIME_ROLE ( 'classification_date' ) ;
#143 = VERTEX_POINT ( 'NONE', #94 ) ;
#144 = PERSON_AND_ORGANIZATION_ROLE ( 'classification_officer' ) ;
#145 = LINE ( 'NONE', #127, #88 ) ;
#146 = APPROVAL_STATUS ( 'not_yet_approved' ) ;
#147 = ADVANCED_FACE ( 'NONE', ( #8 ), #72, .T. ) ;
#148 = DATE_AND_TIME ( #78, #36 ) ;
#149 = PRODUCT_DEFINITION_FORMATION_WITH_SPECIFIED_SOURCE ( 'ANY', '', #113, .NOT_KNOWN. ) ;
#150 = SHAPE_DEFINITION_REPRESENTATION ( #140, #109 ) ;
#151 = COORDINATED_UNIVERSAL_TIME_OFFSET ( 5, 0, .BEHIND. ) ;
#152 = DIRECTION ( 'NONE',  ( 0.0000000000000000000, 0.0000000000000000000, 1.000000000000000000 ) ) ;
#153 = UNCERTAINTY_MEASURE_WITH_UNIT (LENGTH_MEASURE( 1.000000000000000100E-005 ), #117, 'distance_accuracy_value', 'NONE');
#154 = CC_DESIGN_DATE_AND_TIME_ASSIGNMENT ( #54, #142, ( #166 ) ) ;
#155 = DIRECTION ( 'NONE',  ( 1.000000000000000000, 0.0000000000000000000, 0.0000000000000000000 ) ) ;
#156 = CLOSED_SHELL ( 'NONE', ( #147, #74, #17, #16 ) ) ;
#157 = AXIS2_PLACEMENT_3D ( 'NONE', #89, #152, #112 ) ;
#158 = DATE_TIME_ROLE ( 'creation_date' ) ;
#159 = APPROVAL_DATE_TIME ( #148, #5 ) ;
#160 = PERSON_AND_ORGANIZATION_ROLE ( 'design_owner' ) ;
#161 = LOCAL_TIME ( 10, 22, 4.000000000000000000, #76 ) ;
#162 = CIRCLE ( 'NONE', #133, 4.500000000000000000 ) ;
#163 = DIRECTION ( 'NONE',  ( 1.000000000000000000, 0.0000000000000000000, -0.0000000000000000000 ) ) ;
#164 = DIRECTION ( 'NONE',  ( 1.000000000000000000, 0.0000000000000000000, 0.0000000000000000000 ) ) ;
#165 = APPROVAL_DATE_TIME ( #138, #91 ) ;
#166 = SECURITY_CLASSIFICATION ( '', '', #71 ) ;
#167 = ORIENTED_EDGE ( 'NONE', *, *, #141, .T. ) ;
#168 = EDGE_CURVE ( 'NONE', #115, #143, #145, .T. ) ;
#169 = EDGE_LOOP ( 'NONE', ( #59, #13 ) ) ;
#170 =( GEOMETRIC_REPRESENTATION_CONTEXT ( 3 ) GLOBAL_UNCERTAINTY_ASSIGNED_CONTEXT ( ( #153 ) ) GLOBAL_UNIT_ASSIGNED_CONTEXT ( ( #117, #58, #85 ) ) REPRESENTATION_CONTEXT ( 'NONE', 'WORKASPACE' ) );
#171 = CIRCLE ( 'NONE', #99, 4.500000000000000000 ) ;
#172 = COORDINATED_UNIVERSAL_TIME_OFFSET ( 5, 0, .BEHIND. ) ;
#173 = DIRECTION ( 'NONE',  ( 0.0000000000000000000, 0.0000000000000000000, 1.000000000000000000 ) ) ;
#174 = DIRECTION ( 'NONE',  ( 1.000000000000000000, 0.0000000000000000000, -0.0000000000000000000 ) ) ;
#175 = PRODUCT_DEFINITION ( 'UNKNOWN', '', #149, #68 ) ;
ENDSEC;
END-ISO-10303-21;
