ISO-10303-21;
HEADER;
FILE_DESCRIPTION (( 'STEP AP203' ),
    '1' );
FILE_NAME ('step_47235.step',
    '2014-06-12T17:57:47',
    ( '' ),
    ( '' ),
    'SwSTEP 2.0',
    'SolidWorks 2014',
    '' );
FILE_SCHEMA (( 'CONFIG_CONTROL_DESIGN' ));
ENDSEC;

DATA;
#1 = PERSON_AND_ORGANIZATION_ROLE ( 'classification_officer' ) ;
#2 = AXIS2_PLACEMENT_3D ( 'NONE', #209, #197, #225 ) ;
#3 = VECTOR ( 'NONE', #264, 1000.000000000000100 ) ;
#4 = AXIS2_PLACEMENT_3D ( 'NONE', #126, #140, #109 ) ;
#5 = VERTEX_POINT ( 'NONE', #275 ) ;
#6 = SECURITY_CLASSIFICATION_LEVEL ( 'unclassified' ) ;
#7 = FACE_OUTER_BOUND ( 'NONE', #51, .T. ) ;
#8 = LINE ( 'NONE', #80, #121 ) ;
#9 = PERSON_AND_ORGANIZATION_ROLE ( 'design_supplier' ) ;
#10 = ADVANCED_FACE ( 'NONE', ( #279 ), #240, .F. ) ;
#11 = PERSON_AND_ORGANIZATION_ROLE ( 'creator' ) ;
#12 = ORIENTED_EDGE ( 'NONE', *, *, #81, .F. ) ;
#13 = APPROVAL_ROLE ( '' ) ;
#14 = APPROVAL_STATUS ( 'not_yet_approved' ) ;
#15 = DATE_AND_TIME ( #62, #316 ) ;
#16 = LINE ( 'NONE', #299, #158 ) ;
#17 = PERSON_AND_ORGANIZATION_ROLE ( 'creator' ) ;
#18 = APPROVAL_ROLE ( '' ) ;
#19 = LINE ( 'NONE', #74, #154 ) ;
#20 = EDGE_LOOP ( 'NONE', ( #226, #63, #12 ) ) ;
#21 = APPROVAL_STATUS ( 'not_yet_approved' ) ;
#22 = APPLICATION_PROTOCOL_DEFINITION ( 'international standard', 'config_control_design', 1994, #27 ) ;
#23 = ORGANIZATION ( 'UNSPECIFIED', 'UNSPECIFIED', '' ) ;
#24 = EDGE_LOOP ( 'NONE', ( #102, #101, #220, #88 ) ) ;
#25 = AXIS2_PLACEMENT_3D ( 'NONE', #280, #274, #273 ) ;
#26 = EDGE_LOOP ( 'NONE', ( #317, #245, #184, #246 ) ) ;
#27 = APPLICATION_CONTEXT ( 'configuration controlled 3d designs of mechanical parts and assemblies' ) ;
#28 = AXIS2_PLACEMENT_3D ( 'NONE', #143, #134, #131 ) ;
#29 = FACE_OUTER_BOUND ( 'NONE', #148, .T. ) ;
#30 = PERSON_AND_ORGANIZATION_ROLE ( 'design_owner' ) ;
#31 = VERTEX_POINT ( 'NONE', #210 ) ;
#32 = VECTOR ( 'NONE', #228, 1000.000000000000000 ) ;
#33 = MECHANICAL_CONTEXT ( 'NONE', #39, 'mechanical' ) ;
#34 = ORIENTED_EDGE ( 'NONE', *, *, #57, .T. ) ;
#35 = ADVANCED_BREP_SHAPE_REPRESENTATION ( 'step_47235', ( #262, #233, #106 ), #310 ) ;
#36 = EDGE_LOOP ( 'NONE', ( #59, #284, #179, #71 ) ) ;
#37 = DIRECTION ( 'NONE',  ( 1.000000000000000000, 0.0000000000000000000, 0.0000000000000000000 ) ) ;
#38 = DIRECTION ( 'NONE',  ( 0.0000000000000000000, 0.0000000000000000000, 1.000000000000000000 ) ) ;
#39 = APPLICATION_CONTEXT ( 'configuration controlled 3d designs of mechanical parts and assemblies' ) ;
#40 = ADVANCED_FACE ( 'NONE', ( #138 ), #190, .F. ) ;
#41 = LINE ( 'NONE', #49, #86 ) ;
#42 = CARTESIAN_POINT ( 'NONE',  ( -1.224646799147353100E-015, 15.00000000000000000, 0.0000000000000000000 ) ) ;
#43 = APPROVAL_STATUS ( 'not_yet_approved' ) ;
#44 = AXIS2_PLACEMENT_3D ( 'NONE', #171, #127, #166 ) ;
#45 = FACE_OUTER_BOUND ( 'NONE', #300, .T. ) ;
#46 = DATE_TIME_ROLE ( 'creation_date' ) ;
#47 = APPLICATION_PROTOCOL_DEFINITION ( 'international standard', 'config_control_design', 1994, #39 ) ;
#48 = VECTOR ( 'NONE', #174, 1000.000000000000100 ) ;
#49 = CARTESIAN_POINT ( 'NONE',  ( 0.0000000000000000000, 0.0000000000000000000, 15.00000000000000000 ) ) ;
#50 = APPROVAL_PERSON_ORGANIZATION ( #302, #150, #18 ) ;
#51 = EDGE_LOOP ( 'NONE', ( #320, #268, #189, #267 ) ) ;
#52 = EDGE_CURVE ( 'NONE', #31, #64, #177, .T. ) ;
#53 =( NAMED_UNIT ( * ) SI_UNIT ( $, .STERADIAN. ) SOLID_ANGLE_UNIT ( ) );
#54 = VECTOR ( 'NONE', #139, 1000.000000000000000 ) ;
#55 = UNCERTAINTY_MEASURE_WITH_UNIT (LENGTH_MEASURE( 1.000000000000000100E-005 ), #73, 'distance_accuracy_value', 'NONE');
#56 =( NAMED_UNIT ( * ) PLANE_ANGLE_UNIT ( ) SI_UNIT ( $, .RADIAN. ) );
#57 = EDGE_CURVE ( 'NONE', #311, #64, #96, .T. ) ;
#58 = DATE_TIME_ROLE ( 'classification_date' ) ;
#59 = ORIENTED_EDGE ( 'NONE', *, *, #132, .T. ) ;
#60 = CARTESIAN_POINT ( 'NONE',  ( 0.0000000000000000000, 0.0000000000000000000, 0.0000000000000000000 ) ) ;
#61 = EDGE_CURVE ( 'NONE', #258, #31, #176, .T. ) ;
#62 = CALENDAR_DATE ( 2014, 12, 6 ) ;
#63 = ORIENTED_EDGE ( 'NONE', *, *, #135, .F. ) ;
#64 = VERTEX_POINT ( 'NONE', #42 ) ;
#65 = PERSON_AND_ORGANIZATION ( #223, #23 ) ;
#66 = EDGE_CURVE ( 'NONE', #183, #265, #8, .T. ) ;
#67 = DATE_AND_TIME ( #282, #309 ) ;
#68 = DIRECTION ( 'NONE',  ( -0.0000000000000000000, -0.0000000000000000000, -1.000000000000000000 ) ) ;
#69 = EDGE_CURVE ( 'NONE', #183, #5, #41, .T. ) ;
#70 = DIRECTION ( 'NONE',  ( 1.000000000000000000, 0.0000000000000000000, -0.0000000000000000000 ) ) ;
#71 = ORIENTED_EDGE ( 'NONE', *, *, #218, .T. ) ;
#72 = DIRECTION ( 'NONE',  ( 0.0000000000000000000, 0.0000000000000000000, 1.000000000000000000 ) ) ;
#73 =( LENGTH_UNIT ( ) NAMED_UNIT ( * ) SI_UNIT ( .MILLI., .METRE. ) );
#74 = CARTESIAN_POINT ( 'NONE',  ( 14.99999999999999800, 15.00000000000000200, 15.00000000000000000 ) ) ;
#75 = CARTESIAN_POINT ( 'NONE',  ( 0.0000000000000000000, 0.0000000000000000000, 15.00000000000000000 ) ) ;
#76 = APPROVAL_DATE_TIME ( #241, #150 ) ;
#77 = ORIENTED_EDGE ( 'NONE', *, *, #61, .T. ) ;
#78 = EDGE_CURVE ( 'NONE', #258, #311, #19, .T. ) ;
#79 = VECTOR ( 'NONE', #160, 1000.000000000000000 ) ;
#80 = CARTESIAN_POINT ( 'NONE',  ( 0.0000000000000000000, 0.0000000000000000000, 15.00000000000000000 ) ) ;
#81 = EDGE_CURVE ( 'NONE', #64, #256, #16, .T. ) ;
#82 = FACE_OUTER_BOUND ( 'NONE', #216, .T. ) ;
#83 = CARTESIAN_POINT ( 'NONE',  ( 14.99999999999999800, 15.00000000000000200, 0.0000000000000000000 ) ) ;
#84 = DIRECTION ( 'NONE',  ( 0.0000000000000000000, -0.0000000000000000000, 1.000000000000000000 ) ) ;
#85 = LINE ( 'NONE', #230, #32 ) ;
#86 = VECTOR ( 'NONE', #119, 1000.000000000000000 ) ;
#87 = DIRECTION ( 'NONE',  ( 0.0000000000000000000, 1.000000000000000000, 0.0000000000000000000 ) ) ;
#88 = ORIENTED_EDGE ( 'NONE', *, *, #175, .T. ) ;
#89 = ADVANCED_FACE ( 'NONE', ( #82 ), #297, .F. ) ;
#90 = ORIENTED_EDGE ( 'NONE', *, *, #113, .T. ) ;
#91 = CARTESIAN_POINT ( 'NONE',  ( 0.0000000000000000000, 0.0000000000000000000, 15.00000000000000000 ) ) ;
#92 = CC_DESIGN_SECURITY_CLASSIFICATION ( #145, ( #278 ) ) ;
#93 = EDGE_CURVE ( 'NONE', #208, #183, #231, .T. ) ;
#94 = SHAPE_DEFINITION_REPRESENTATION ( #163, #35 ) ;
#95 = PLANE ( 'NONE',  #227 ) ;
#96 = LINE ( 'NONE', #192, #118 ) ;
#97 = CARTESIAN_POINT ( 'NONE',  ( 15.00000000000000000, 0.0000000000000000000, 0.0000000000000000000 ) ) ;
#98 = PLANE ( 'NONE',  #270 ) ;
#99 = VECTOR ( 'NONE', #196, 1000.000000000000000 ) ;
#100 = PRODUCT_RELATED_PRODUCT_CATEGORY ( 'detail', '', ( #306 ) ) ;
#101 = ORIENTED_EDGE ( 'NONE', *, *, #218, .F. ) ;
#102 = ORIENTED_EDGE ( 'NONE', *, *, #202, .T. ) ;
#103 = EDGE_CURVE ( 'NONE', #212, #256, #242, .T. ) ;
#104 = CARTESIAN_POINT ( 'NONE',  ( 14.99999999999999800, 15.00000000000000200, 15.00000000000000000 ) ) ;
#105 = COORDINATED_UNIVERSAL_TIME_OFFSET ( 7, 0, .BEHIND. ) ;
#106 = AXIS2_PLACEMENT_3D ( 'NONE', #60, #38, #37 ) ;
#107 = ORIENTED_EDGE ( 'NONE', *, *, #132, .F. ) ;
#108 = APPROVAL_DATE_TIME ( #110, #287 ) ;
#109 = DIRECTION ( 'NONE',  ( -0.7071067811865474600, 0.7071067811865474600, 0.0000000000000000000 ) ) ;
#110 = DATE_AND_TIME ( #146, #255 ) ;
#111 = CC_DESIGN_APPROVAL ( #159, ( #145 ) ) ;
#112 = EDGE_LOOP ( 'NONE', ( #249, #295, #147 ) ) ;
#113 = EDGE_CURVE ( 'NONE', #31, #212, #294, .T. ) ;
#114 = COORDINATED_UNIVERSAL_TIME_OFFSET ( 7, 0, .BEHIND. ) ;
#115 = PLANE ( 'NONE',  #4 ) ;
#116 = COORDINATED_UNIVERSAL_TIME_OFFSET ( 7, 0, .BEHIND. ) ;
#117 = DIRECTION ( 'NONE',  ( -0.0000000000000000000, -0.0000000000000000000, -1.000000000000000000 ) ) ;
#118 = VECTOR ( 'NONE', #254, 1000.000000000000000 ) ;
#119 = DIRECTION ( 'NONE',  ( 1.000000000000000000, 0.0000000000000000000, 0.0000000000000000000 ) ) ;
#120 = CARTESIAN_POINT ( 'NONE',  ( -1.224646799147353100E-015, 15.00000000000000000, 15.00000000000000000 ) ) ;
#121 = VECTOR ( 'NONE', #68, 1000.000000000000000 ) ;
#122 = CC_DESIGN_PERSON_AND_ORGANIZATION_ASSIGNMENT ( #266, #30, ( #306 ) ) ;
#123 = ADVANCED_FACE ( 'NONE', ( #304 ), #252, .F. ) ;
#124 = PERSON_AND_ORGANIZATION ( #223, #23 ) ;
#125 = LOCAL_TIME ( 10, 57, 47.00000000000000000, #105 ) ;
#126 = CARTESIAN_POINT ( 'NONE',  ( -1.224646799147353100E-015, 15.00000000000000000, 15.00000000000000000 ) ) ;
#127 = DIRECTION ( 'NONE',  ( 0.0000000000000000000, 0.0000000000000000000, 1.000000000000000000 ) ) ;
#128 = CALENDAR_DATE ( 2014, 12, 6 ) ;
#129 = CARTESIAN_POINT ( 'NONE',  ( 15.00000000000000000, 0.0000000000000000000, 0.0000000000000000000 ) ) ;
#130 = FACE_OUTER_BOUND ( 'NONE', #36, .T. ) ;
#131 = DIRECTION ( 'NONE',  ( -1.000000000000000000, 0.0000000000000000000, 0.0000000000000000000 ) ) ;
#132 = EDGE_CURVE ( 'NONE', #165, #265, #85, .T. ) ;
#133 = CC_DESIGN_PERSON_AND_ORGANIZATION_ASSIGNMENT ( #257, #1, ( #145 ) ) ;
#134 = DIRECTION ( 'NONE',  ( 0.0000000000000000000, 0.0000000000000000000, -1.000000000000000000 ) ) ;
#135 = EDGE_CURVE ( 'NONE', #256, #311, #136, .T. ) ;
#136 = LINE ( 'NONE', #236, #172 ) ;
#137 = PRODUCT_DEFINITION ( 'UNKNOWN', '', #278, #286 ) ;
#138 = FACE_OUTER_BOUND ( 'NONE', #296, .T. ) ;
#139 = DIRECTION ( 'NONE',  ( -0.0000000000000000000, -0.0000000000000000000, -1.000000000000000000 ) ) ;
#140 = DIRECTION ( 'NONE',  ( 0.7071067811865475700, 0.7071067811865475700, -0.0000000000000000000 ) ) ;
#141 = CARTESIAN_POINT ( 'NONE',  ( 0.0000000000000000000, 0.0000000000000000000, 0.0000000000000000000 ) ) ;
#142 = ORIENTED_EDGE ( 'NONE', *, *, #52, .T. ) ;
#143 = CARTESIAN_POINT ( 'NONE',  ( 0.0000000000000000000, 0.0000000000000000000, 0.0000000000000000000 ) ) ;
#144 = PLANE ( 'NONE',  #28 ) ;
#145 = SECURITY_CLASSIFICATION ( '', '', #6 ) ;
#146 = CALENDAR_DATE ( 2014, 12, 6 ) ;
#147 = ORIENTED_EDGE ( 'NONE', *, *, #69, .T. ) ;
#148 = EDGE_LOOP ( 'NONE', ( #261, #157, #303, #142 ) ) ;
#149 = CARTESIAN_POINT ( 'NONE',  ( -1.224646799147353100E-015, 15.00000000000000000, 15.00000000000000000 ) ) ;
#150 = APPROVAL ( #21, 'UNSPECIFIED' ) ;
#151 = APPROVAL_PERSON_ORGANIZATION ( #124, #159, #201 ) ;
#152 = ADVANCED_FACE ( 'NONE', ( #45 ), #219, .F. ) ;
#153 = DIRECTION ( 'NONE',  ( -0.7071067811865474600, 0.7071067811865474600, 0.0000000000000000000 ) ) ;
#154 = VECTOR ( 'NONE', #117, 1000.000000000000000 ) ;
#155 = CARTESIAN_POINT ( 'NONE',  ( 15.00000000000000000, 0.0000000000000000000, 0.0000000000000000000 ) ) ;
#156 = CARTESIAN_POINT ( 'NONE',  ( -1.224646799147353100E-015, 15.00000000000000000, 15.00000000000000000 ) ) ;
#157 = ORIENTED_EDGE ( 'NONE', *, *, #103, .F. ) ;
#158 = VECTOR ( 'NONE', #291, 1000.000000000000100 ) ;
#159 = APPROVAL ( #43, 'UNSPECIFIED' ) ;
#160 = DIRECTION ( 'NONE',  ( -0.0000000000000000000, -0.0000000000000000000, -1.000000000000000000 ) ) ;
#161 = DIRECTION ( 'NONE',  ( -1.000000000000000000, -1.156482317317871500E-016, 0.0000000000000000000 ) ) ;
#162 = FACE_OUTER_BOUND ( 'NONE', #112, .T. ) ;
#163 = PRODUCT_DEFINITION_SHAPE ( 'NONE', 'NONE',  #137 ) ;
#164 = PERSON_AND_ORGANIZATION ( #223, #23 ) ;
#165 = VERTEX_POINT ( 'NONE', #232 ) ;
#166 = DIRECTION ( 'NONE',  ( 1.000000000000000000, 0.0000000000000000000, -0.0000000000000000000 ) ) ;
#167 = DIRECTION ( 'NONE',  ( -8.164311994315688900E-017, 1.000000000000000000, 0.0000000000000000000 ) ) ;
#168 = DIRECTION ( 'NONE',  ( 1.000000000000000000, 8.164311994315688900E-017, -0.0000000000000000000 ) ) ;
#169 = CARTESIAN_POINT ( 'NONE',  ( -1.224646799147353100E-015, 15.00000000000000000, 15.00000000000000000 ) ) ;
#170 = EDGE_CURVE ( 'NONE', #212, #258, #214, .T. ) ;
#171 = CARTESIAN_POINT ( 'NONE',  ( 0.0000000000000000000, 0.0000000000000000000, 0.0000000000000000000 ) ) ;
#172 = VECTOR ( 'NONE', #251, 1000.000000000000000 ) ;
#173 = CARTESIAN_POINT ( 'NONE',  ( 15.00000000000000000, 0.0000000000000000000, 15.00000000000000000 ) ) ;
#174 = DIRECTION ( 'NONE',  ( -0.7071067811865474600, 0.7071067811865474600, 0.0000000000000000000 ) ) ;
#175 = EDGE_CURVE ( 'NONE', #5, #289, #187, .T. ) ;
#176 = LINE ( 'NONE', #181, #314 ) ;
#177 = LINE ( 'NONE', #120, #54 ) ;
#178 = PLANE ( 'NONE',  #238 ) ;
#179 = ORIENTED_EDGE ( 'NONE', *, *, #93, .F. ) ;
#180 = EDGE_CURVE ( 'NONE', #265, #289, #248, .T. ) ;
#181 = CARTESIAN_POINT ( 'NONE',  ( 14.99999999999999800, 15.00000000000000200, 15.00000000000000000 ) ) ;
#182 = CARTESIAN_POINT ( 'NONE',  ( 15.00000000000000000, 0.0000000000000000000, 15.00000000000000000 ) ) ;
#183 = VERTEX_POINT ( 'NONE', #185 ) ;
#184 = ORIENTED_EDGE ( 'NONE', *, *, #170, .F. ) ;
#185 = CARTESIAN_POINT ( 'NONE',  ( 0.0000000000000000000, 0.0000000000000000000, 15.00000000000000000 ) ) ;
#186 = CC_DESIGN_DATE_AND_TIME_ASSIGNMENT ( #67, #58, ( #145 ) ) ;
#187 = LINE ( 'NONE', #207, #224 ) ;
#188 = DIRECTION ( 'NONE',  ( -0.0000000000000000000, -0.0000000000000000000, -1.000000000000000000 ) ) ;
#189 = ORIENTED_EDGE ( 'NONE', *, *, #69, .F. ) ;
#190 = PLANE ( 'NONE',  #44 ) ;
#191 = CC_DESIGN_APPROVAL ( #150, ( #137 ) ) ;
#192 = CARTESIAN_POINT ( 'NONE',  ( 14.99999999999999800, 15.00000000000000200, 0.0000000000000000000 ) ) ;
#193 = FACE_OUTER_BOUND ( 'NONE', #20, .T. ) ;
#194 = ORIENTED_EDGE ( 'NONE', *, *, #52, .F. ) ;
#195 = EDGE_CURVE ( 'NONE', #5, #208, #263, .T. ) ;
#196 = DIRECTION ( 'NONE',  ( 1.000000000000000000, 0.0000000000000000000, 0.0000000000000000000 ) ) ;
#197 = DIRECTION ( 'NONE',  ( -0.7071067811865475700, -0.7071067811865475700, 0.0000000000000000000 ) ) ;
#198 = VECTOR ( 'NONE', #277, 1000.000000000000000 ) ;
#199 = CC_DESIGN_PERSON_AND_ORGANIZATION_ASSIGNMENT ( #164, #17, ( #137 ) ) ;
#200 = ADVANCED_FACE ( 'NONE', ( #130 ), #178, .F. ) ;
#201 = APPROVAL_ROLE ( '' ) ;
#202 = EDGE_CURVE ( 'NONE', #289, #165, #283, .T. ) ;
#203 = ORIENTED_EDGE ( 'NONE', *, *, #202, .F. ) ;
#204 = VECTOR ( 'NONE', #153, 1000.000000000000100 ) ;
#205 = CARTESIAN_POINT ( 'NONE',  ( 0.0000000000000000000, 0.0000000000000000000, 0.0000000000000000000 ) ) ;
#206 = ORIENTED_EDGE ( 'NONE', *, *, #180, .F. ) ;
#207 = CARTESIAN_POINT ( 'NONE',  ( 15.00000000000000000, 0.0000000000000000000, 15.00000000000000000 ) ) ;
#208 = VERTEX_POINT ( 'NONE', #149 ) ;
#209 = CARTESIAN_POINT ( 'NONE',  ( 15.00000000000000000, 0.0000000000000000000, 15.00000000000000000 ) ) ;
#210 = CARTESIAN_POINT ( 'NONE',  ( -1.224646799147353100E-015, 15.00000000000000000, 15.00000000000000000 ) ) ;
#211 = VECTOR ( 'NONE', #269, 1000.000000000000000 ) ;
#212 = VERTEX_POINT ( 'NONE', #173 ) ;
#213 = CARTESIAN_POINT ( 'NONE',  ( 15.00000000000000000, 0.0000000000000000000, 15.00000000000000000 ) ) ;
#214 = LINE ( 'NONE', #213, #288 ) ;
#215 = DIRECTION ( 'NONE',  ( -1.000000000000000000, 0.0000000000000000000, 0.0000000000000000000 ) ) ;
#216 = EDGE_LOOP ( 'NONE', ( #34, #194, #237, #318 ) ) ;
#217 = DIRECTION ( 'NONE',  ( 0.0000000000000000000, 0.0000000000000000000, -1.000000000000000000 ) ) ;
#218 = EDGE_CURVE ( 'NONE', #208, #165, #298, .T. ) ;
#219 = PLANE ( 'NONE',  #319 ) ;
#220 = ORIENTED_EDGE ( 'NONE', *, *, #195, .F. ) ;
#221 = ADVANCED_FACE ( 'NONE', ( #193 ), #144, .T. ) ;
#222 = DIRECTION ( 'NONE',  ( -1.156482317317871500E-016, 1.000000000000000000, 0.0000000000000000000 ) ) ;
#223 = PERSON ( 'UNSPECIFIED', 'UNSPECIFIED', 'UNSPECIFIED', ('UNSPECIFIED'), ('UNSPECIFIED'), ('UNSPECIFIED') ) ;
#224 = VECTOR ( 'NONE', #188, 1000.000000000000000 ) ;
#225 = DIRECTION ( 'NONE',  ( 0.7071067811865474600, -0.7071067811865474600, 0.0000000000000000000 ) ) ;
#226 = ORIENTED_EDGE ( 'NONE', *, *, #57, .F. ) ;
#227 = AXIS2_PLACEMENT_3D ( 'NONE', #91, #87, #84 ) ;
#228 = DIRECTION ( 'NONE',  ( 8.164311994315687600E-017, -1.000000000000000000, 0.0000000000000000000 ) ) ;
#229 = COORDINATED_UNIVERSAL_TIME_OFFSET ( 7, 0, .BEHIND. ) ;
#230 = CARTESIAN_POINT ( 'NONE',  ( -1.224646799147353100E-015, 15.00000000000000000, 0.0000000000000000000 ) ) ;
#231 = LINE ( 'NONE', #272, #198 ) ;
#232 = CARTESIAN_POINT ( 'NONE',  ( -1.224646799147353100E-015, 15.00000000000000000, 0.0000000000000000000 ) ) ;
#233 = MANIFOLD_SOLID_BREP ( 'Boss-Extrude2', #250 ) ;
#234 = CARTESIAN_POINT ( 'NONE',  ( 0.0000000000000000000, 0.0000000000000000000, 15.00000000000000000 ) ) ;
#235 = PERSON_AND_ORGANIZATION ( #223, #23 ) ;
#236 = CARTESIAN_POINT ( 'NONE',  ( 15.00000000000000000, 0.0000000000000000000, 0.0000000000000000000 ) ) ;
#237 = ORIENTED_EDGE ( 'NONE', *, *, #61, .F. ) ;
#238 = AXIS2_PLACEMENT_3D ( 'NONE', #169, #168, #167 ) ;
#239 = DIRECTION ( 'NONE',  ( 1.156482317317871500E-016, -1.000000000000000000, 0.0000000000000000000 ) ) ;
#240 = PLANE ( 'NONE',  #2 ) ;
#241 = DATE_AND_TIME ( #276, #125 ) ;
#242 = LINE ( 'NONE', #308, #211 ) ;
#243 = ADVANCED_FACE ( 'NONE', ( #29 ), #115, .F. ) ;
#244 = DIRECTION ( 'NONE',  ( -1.000000000000000000, -1.156482317317871500E-016, 0.0000000000000000000 ) ) ;
#245 = ORIENTED_EDGE ( 'NONE', *, *, #78, .F. ) ;
#246 = ORIENTED_EDGE ( 'NONE', *, *, #103, .T. ) ;
#247 = CARTESIAN_POINT ( 'NONE',  ( 15.00000000000000000, 0.0000000000000000000, 15.00000000000000000 ) ) ;
#248 = LINE ( 'NONE', #205, #99 ) ;
#249 = ORIENTED_EDGE ( 'NONE', *, *, #195, .T. ) ;
#250 = CLOSED_SHELL ( 'NONE', ( #89, #243, #123, #152, #221 ) ) ;
#251 = DIRECTION ( 'NONE',  ( -1.156482317317871500E-016, 1.000000000000000000, 0.0000000000000000000 ) ) ;
#252 = PLANE ( 'NONE',  #321 ) ;
#253 = CC_DESIGN_DATE_AND_TIME_ASSIGNMENT ( #15, #46, ( #137 ) ) ;
#254 = DIRECTION ( 'NONE',  ( -1.000000000000000000, -1.156482317317871500E-016, 0.0000000000000000000 ) ) ;
#255 = LOCAL_TIME ( 10, 57, 47.00000000000000000, #229 ) ;
#256 = VERTEX_POINT ( 'NONE', #129 ) ;
#257 = PERSON_AND_ORGANIZATION ( #223, #23 ) ;
#258 = VERTEX_POINT ( 'NONE', #104 ) ;
#259 = LOCAL_TIME ( 10, 57, 47.00000000000000000, #292 ) ;
#260 = CARTESIAN_POINT ( 'NONE',  ( -1.224646799147353100E-015, 15.00000000000000000, 15.00000000000000000 ) ) ;
#261 = ORIENTED_EDGE ( 'NONE', *, *, #81, .T. ) ;
#262 = MANIFOLD_SOLID_BREP ( 'Boss-Extrude1', #307 ) ;
#263 = LINE ( 'NONE', #182, #48 ) ;
#264 = DIRECTION ( 'NONE',  ( 0.7071067811865474600, -0.7071067811865474600, 0.0000000000000000000 ) ) ;
#265 = VERTEX_POINT ( 'NONE', #141 ) ;
#266 = PERSON_AND_ORGANIZATION ( #223, #23 ) ;
#267 = ORIENTED_EDGE ( 'NONE', *, *, #66, .T. ) ;
#268 = ORIENTED_EDGE ( 'NONE', *, *, #175, .F. ) ;
#269 = DIRECTION ( 'NONE',  ( -0.0000000000000000000, -0.0000000000000000000, -1.000000000000000000 ) ) ;
#270 = AXIS2_PLACEMENT_3D ( 'NONE', #75, #72, #70 ) ;
#271 = APPROVAL_PERSON_ORGANIZATION ( #235, #287, #13 ) ;
#272 = CARTESIAN_POINT ( 'NONE',  ( -1.224646799147353100E-015, 15.00000000000000000, 15.00000000000000000 ) ) ;
#273 = DIRECTION ( 'NONE',  ( 1.000000000000000000, 1.156482317317871500E-016, 0.0000000000000000000 ) ) ;
#274 = DIRECTION ( 'NONE',  ( 1.156482317317871500E-016, -1.000000000000000000, 0.0000000000000000000 ) ) ;
#275 = CARTESIAN_POINT ( 'NONE',  ( 15.00000000000000000, 0.0000000000000000000, 15.00000000000000000 ) ) ;
#276 = CALENDAR_DATE ( 2014, 12, 6 ) ;
#277 = DIRECTION ( 'NONE',  ( 8.164311994315687600E-017, -1.000000000000000000, 0.0000000000000000000 ) ) ;
#278 = PRODUCT_DEFINITION_FORMATION_WITH_SPECIFIED_SOURCE ( 'ANY', '', #306, .NOT_KNOWN. ) ;
#279 = FACE_OUTER_BOUND ( 'NONE', #24, .T. ) ;
#280 = CARTESIAN_POINT ( 'NONE',  ( 14.99999999999999800, 15.00000000000000200, 15.00000000000000000 ) ) ;
#281 = PERSON_AND_ORGANIZATION ( #223, #23 ) ;
#282 = CALENDAR_DATE ( 2014, 12, 6 ) ;
#283 = LINE ( 'NONE', #155, #204 ) ;
#284 = ORIENTED_EDGE ( 'NONE', *, *, #66, .F. ) ;
#285 = ADVANCED_FACE ( 'NONE', ( #7 ), #95, .F. ) ;
#286 = DESIGN_CONTEXT ( 'detailed design', #27, 'design' ) ;
#287 = APPROVAL ( #14, 'UNSPECIFIED' ) ;
#288 = VECTOR ( 'NONE', #222, 1000.000000000000000 ) ;
#289 = VERTEX_POINT ( 'NONE', #97 ) ;
#290 = ORIENTED_EDGE ( 'NONE', *, *, #170, .T. ) ;
#291 = DIRECTION ( 'NONE',  ( 0.7071067811865474600, -0.7071067811865474600, 0.0000000000000000000 ) ) ;
#292 = COORDINATED_UNIVERSAL_TIME_OFFSET ( 7, 0, .BEHIND. ) ;
#293 = CC_DESIGN_PERSON_AND_ORGANIZATION_ASSIGNMENT ( #281, #9, ( #278 ) ) ;
#294 = LINE ( 'NONE', #260, #3 ) ;
#295 = ORIENTED_EDGE ( 'NONE', *, *, #93, .T. ) ;
#296 = EDGE_LOOP ( 'NONE', ( #203, #206, #107 ) ) ;
#297 = PLANE ( 'NONE',  #25 ) ;
#298 = LINE ( 'NONE', #156, #79 ) ;
#299 = CARTESIAN_POINT ( 'NONE',  ( -1.224646799147353100E-015, 15.00000000000000000, 0.0000000000000000000 ) ) ;
#300 = EDGE_LOOP ( 'NONE', ( #77, #90, #290 ) ) ;
#301 = APPROVAL_DATE_TIME ( #315, #159 ) ;
#302 = PERSON_AND_ORGANIZATION ( #223, #23 ) ;
#303 = ORIENTED_EDGE ( 'NONE', *, *, #113, .F. ) ;
#304 = FACE_OUTER_BOUND ( 'NONE', #26, .T. ) ;
#305 = CC_DESIGN_APPROVAL ( #287, ( #278 ) ) ;
#306 = PRODUCT ( 'step_47235', 'step_47235', '', ( #33 ) ) ;
#307 = CLOSED_SHELL ( 'NONE', ( #10, #200, #285, #313, #40 ) ) ;
#308 = CARTESIAN_POINT ( 'NONE',  ( 15.00000000000000000, 0.0000000000000000000, 15.00000000000000000 ) ) ;
#309 = LOCAL_TIME ( 10, 57, 47.00000000000000000, #114 ) ;
#310 =( GEOMETRIC_REPRESENTATION_CONTEXT ( 3 ) GLOBAL_UNCERTAINTY_ASSIGNED_CONTEXT ( ( #55 ) ) GLOBAL_UNIT_ASSIGNED_CONTEXT ( ( #73, #56, #53 ) ) REPRESENTATION_CONTEXT ( 'NONE', 'WORKASPACE' ) );
#311 = VERTEX_POINT ( 'NONE', #83 ) ;
#312 = CC_DESIGN_PERSON_AND_ORGANIZATION_ASSIGNMENT ( #65, #11, ( #278 ) ) ;
#313 = ADVANCED_FACE ( 'NONE', ( #162 ), #98, .T. ) ;
#314 = VECTOR ( 'NONE', #161, 1000.000000000000000 ) ;
#315 = DATE_AND_TIME ( #128, #259 ) ;
#316 = LOCAL_TIME ( 10, 57, 47.00000000000000000, #116 ) ;
#317 = ORIENTED_EDGE ( 'NONE', *, *, #135, .T. ) ;
#318 = ORIENTED_EDGE ( 'NONE', *, *, #78, .T. ) ;
#319 = AXIS2_PLACEMENT_3D ( 'NONE', #234, #217, #215 ) ;
#320 = ORIENTED_EDGE ( 'NONE', *, *, #180, .T. ) ;
#321 = AXIS2_PLACEMENT_3D ( 'NONE', #247, #244, #239 ) ;
ENDSEC;
END-ISO-10303-21;
