ISO-10303-21;
HEADER;
FILE_DESCRIPTION (( 'STEP AP203' ),
    '1' );
FILE_NAME ('Web Model 64397MX_64400.step',
    '2017-10-30T13:02:46',
    ( '' ),
    ( '' ),
    'SwSTEP 2.0',
    'SolidWorks 2016',
    '' );
FILE_SCHEMA (( 'CONFIG_CONTROL_DESIGN' ));
ENDSEC;

DATA;
#1 = DIRECTION ( 'NONE',  ( -0.0000000000000000000, -0.0000000000000000000, -1.000000000000000000 ) ) ;
#2 = APPROVAL_PERSON_ORGANIZATION ( #76, #158, #79 ) ;
#3 = DIRECTION ( 'NONE',  ( 1.000000000000000000, 0.0000000000000000000, -0.0000000000000000000 ) ) ;
#4 = EDGE_LOOP ( 'NONE', ( #187, #195, #17, #21 ) ) ;
#5 = CARTESIAN_POINT ( 'NONE',  ( 6.349999999999998800, 6.350000000000000500, -3.000000000000000000 ) ) ;
#6 = CARTESIAN_POINT ( 'NONE',  ( -6.350000000000000500, -6.350000000000000500, -3.000000000000000000 ) ) ;
#7 = CARTESIAN_POINT ( 'NONE',  ( -6.350000000000000500, 6.349999999999998800, -3.000000000000000000 ) ) ;
#8 =( LENGTH_UNIT ( ) NAMED_UNIT ( * ) SI_UNIT ( .MILLI., .METRE. ) );
#9 = LINE ( 'NONE', #224, #144 ) ;
#10 = DIRECTION ( 'NONE',  ( 0.0000000000000000000, 0.0000000000000000000, 1.000000000000000000 ) ) ;
#11 = CARTESIAN_POINT ( 'NONE',  ( -6.350000000000000500, 6.349999999999998800, 3.000000000000000000 ) ) ;
#12 = APPROVAL_ROLE ( '' ) ;
#13 = COORDINATED_UNIVERSAL_TIME_OFFSET ( 5, 0, .BEHIND. ) ;
#14 = PLANE ( 'NONE',  #104 ) ;
#15 = VECTOR ( 'NONE', #1, 1000.000000000000000 ) ;
#16 = DATE_AND_TIME ( #20, #64 ) ;
#17 = ORIENTED_EDGE ( 'NONE', *, *, #96, .F. ) ;
#18 = CC_DESIGN_DATE_AND_TIME_ASSIGNMENT ( #41, #62, ( #132 ) ) ;
#19 = FACE_OUTER_BOUND ( 'NONE', #4, .T. ) ;
#20 = CALENDAR_DATE ( 2017, 30, 10 ) ;
#21 = ORIENTED_EDGE ( 'NONE', *, *, #208, .T. ) ;
#22 = PLANE ( 'NONE',  #231 ) ;
#23 = UNCERTAINTY_MEASURE_WITH_UNIT (LENGTH_MEASURE( 1.000000000000000100E-005 ), #8, 'distance_accuracy_value', 'NONE');
#24 =( GEOMETRIC_REPRESENTATION_CONTEXT ( 3 ) GLOBAL_UNCERTAINTY_ASSIGNED_CONTEXT ( ( #23 ) ) GLOBAL_UNIT_ASSIGNED_CONTEXT ( ( #8, #58, #137 ) ) REPRESENTATION_CONTEXT ( 'NONE', 'WORKASPACE' ) );
#25 = CARTESIAN_POINT ( 'NONE',  ( 6.349999999999998800, 6.350000000000000500, 3.000000000000000000 ) ) ;
#26 = PLANE ( 'NONE',  #69 ) ;
#27 = DIRECTION ( 'NONE',  ( -1.000000000000000000, -1.365923996832131600E-016, 0.0000000000000000000 ) ) ;
#28 = VECTOR ( 'NONE', #201, 1000.000000000000000 ) ;
#29 = ORIENTED_EDGE ( 'NONE', *, *, #96, .T. ) ;
#30 = PERSON_AND_ORGANIZATION_ROLE ( 'classification_officer' ) ;
#31 = LINE ( 'NONE', #91, #86 ) ;
#32 = PRODUCT_DEFINITION_SHAPE ( 'NONE', 'NONE',  #80 ) ;
#33 = LOCAL_TIME ( 9, 2, 46.00000000000000000, #161 ) ;
#34 = FACE_OUTER_BOUND ( 'NONE', #177, .T. ) ;
#35 = FACE_OUTER_BOUND ( 'NONE', #88, .T. ) ;
#36 = CALENDAR_DATE ( 2017, 30, 10 ) ;
#37 = ADVANCED_FACE ( 'NONE', ( #35 ), #22, .T. ) ;
#38 = EDGE_CURVE ( 'NONE', #95, #135, #172, .T. ) ;
#39 = AXIS2_PLACEMENT_3D ( 'NONE', #200, #218, #3 ) ;
#40 = CARTESIAN_POINT ( 'NONE',  ( 6.349999999999998800, -6.349999999999998800, 3.000000000000000000 ) ) ;
#41 = DATE_AND_TIME ( #226, #185 ) ;
#42 = VECTOR ( 'NONE', #203, 1000.000000000000000 ) ;
#43 = CARTESIAN_POINT ( 'NONE',  ( 6.349999999999998800, 6.350000000000000500, 3.000000000000000000 ) ) ;
#44 = EDGE_CURVE ( 'NONE', #82, #135, #65, .T. ) ;
#45 = CARTESIAN_POINT ( 'NONE',  ( 6.349999999999998800, -6.349999999999998800, 3.000000000000000000 ) ) ;
#46 = CARTESIAN_POINT ( 'NONE',  ( -6.350000000000000500, 6.349999999999998800, 3.000000000000000000 ) ) ;
#47 = CARTESIAN_POINT ( 'NONE',  ( 6.349999999999998800, 6.350000000000000500, 3.000000000000000000 ) ) ;
#48 = VERTEX_POINT ( 'NONE', #5 ) ;
#49 = ADVANCED_FACE ( 'NONE', ( #212 ), #56, .F. ) ;
#50 = ORIENTED_EDGE ( 'NONE', *, *, #38, .T. ) ;
#51 = DATE_AND_TIME ( #101, #150 ) ;
#52 = FACE_OUTER_BOUND ( 'NONE', #98, .T. ) ;
#53 = ORIENTED_EDGE ( 'NONE', *, *, #110, .T. ) ;
#54 = PERSON ( 'UNSPECIFIED', 'UNSPECIFIED', 'UNSPECIFIED', ('UNSPECIFIED'), ('UNSPECIFIED'), ('UNSPECIFIED') ) ;
#55 = CLOSED_SHELL ( 'NONE', ( #120, #49, #207, #175, #37, #140 ) ) ;
#56 = PLANE ( 'NONE',  #184 ) ;
#57 = ORIENTED_EDGE ( 'NONE', *, *, #196, .F. ) ;
#58 =( NAMED_UNIT ( * ) PLANE_ANGLE_UNIT ( ) SI_UNIT ( $, .RADIAN. ) );
#59 = CARTESIAN_POINT ( 'NONE',  ( 0.0000000000000000000, 0.0000000000000000000, 0.0000000000000000000 ) ) ;
#60 = PERSON_AND_ORGANIZATION ( #54, #127 ) ;
#61 = ADVANCED_BREP_SHAPE_REPRESENTATION ( 'Web Model 64397MX_64400', ( #123, #147 ), #24 ) ;
#62 = DATE_TIME_ROLE ( 'classification_date' ) ;
#63 = ORIENTED_EDGE ( 'NONE', *, *, #176, .F. ) ;
#64 = LOCAL_TIME ( 9, 2, 46.00000000000000000, #199 ) ;
#65 = LINE ( 'NONE', #186, #15 ) ;
#66 = CC_DESIGN_PERSON_AND_ORGANIZATION_ASSIGNMENT ( #209, #136, ( #121 ) ) ;
#67 = CARTESIAN_POINT ( 'NONE',  ( -6.350000000000000500, -6.350000000000000500, 3.000000000000000000 ) ) ;
#68 = CALENDAR_DATE ( 2017, 30, 10 ) ;
#69 = AXIS2_PLACEMENT_3D ( 'NONE', #45, #74, #168 ) ;
#70 = ORIENTED_EDGE ( 'NONE', *, *, #44, .F. ) ;
#71 = DIRECTION ( 'NONE',  ( -1.365923996832131600E-016, 1.000000000000000000, 0.0000000000000000000 ) ) ;
#72 = DIRECTION ( 'NONE',  ( 1.000000000000000000, 0.0000000000000000000, -0.0000000000000000000 ) ) ;
#73 = CC_DESIGN_DATE_AND_TIME_ASSIGNMENT ( #16, #225, ( #80 ) ) ;
#74 = DIRECTION ( 'NONE',  ( -1.000000000000000000, 0.0000000000000000000, 0.0000000000000000000 ) ) ;
#75 = APPLICATION_CONTEXT ( 'configuration controlled 3d designs of mechanical parts and assemblies' ) ;
#76 = PERSON_AND_ORGANIZATION ( #54, #127 ) ;
#77 = MECHANICAL_CONTEXT ( 'NONE', #75, 'mechanical' ) ;
#78 = ORIENTED_EDGE ( 'NONE', *, *, #196, .T. ) ;
#79 = APPROVAL_ROLE ( '' ) ;
#80 = PRODUCT_DEFINITION ( 'UNKNOWN', '', #121, #230 ) ;
#81 = APPROVAL_ROLE ( '' ) ;
#82 = VERTEX_POINT ( 'NONE', #113 ) ;
#83 = CC_DESIGN_PERSON_AND_ORGANIZATION_ASSIGNMENT ( #131, #30, ( #132 ) ) ;
#84 = ORIENTED_EDGE ( 'NONE', *, *, #110, .F. ) ;
#85 = COORDINATED_UNIVERSAL_TIME_OFFSET ( 5, 0, .BEHIND. ) ;
#86 = VECTOR ( 'NONE', #167, 1000.000000000000000 ) ;
#87 = CC_DESIGN_APPROVAL ( #235, ( #121 ) ) ;
#88 = EDGE_LOOP ( 'NONE', ( #29, #78, #122, #142 ) ) ;
#89 = DIRECTION ( 'NONE',  ( 1.000000000000000000, 0.0000000000000000000, 0.0000000000000000000 ) ) ;
#90 = CC_DESIGN_SECURITY_CLASSIFICATION ( #132, ( #121 ) ) ;
#91 = CARTESIAN_POINT ( 'NONE',  ( 6.349999999999998800, 6.350000000000000500, -3.000000000000000000 ) ) ;
#92 = SHAPE_DEFINITION_REPRESENTATION ( #32, #61 ) ;
#93 = PLANE ( 'NONE',  #234 ) ;
#94 = LINE ( 'NONE', #188, #42 ) ;
#95 = VERTEX_POINT ( 'NONE', #6 ) ;
#96 = EDGE_CURVE ( 'NONE', #229, #160, #215, .T. ) ;
#97 = DIRECTION ( 'NONE',  ( -0.0000000000000000000, -0.0000000000000000000, -1.000000000000000000 ) ) ;
#98 = EDGE_LOOP ( 'NONE', ( #53, #106, #102, #228 ) ) ;
#99 = DIRECTION ( 'NONE',  ( 0.0000000000000000000, 1.000000000000000000, 0.0000000000000000000 ) ) ;
#100 = APPROVAL_STATUS ( 'not_yet_approved' ) ;
#101 = CALENDAR_DATE ( 2017, 30, 10 ) ;
#102 = ORIENTED_EDGE ( 'NONE', *, *, #220, .F. ) ;
#103 = ORIENTED_EDGE ( 'NONE', *, *, #107, .F. ) ;
#104 = AXIS2_PLACEMENT_3D ( 'NONE', #47, #153, #133 ) ;
#105 = APPROVAL_PERSON_ORGANIZATION ( #155, #235, #12 ) ;
#106 = ORIENTED_EDGE ( 'NONE', *, *, #208, .F. ) ;
#107 = EDGE_CURVE ( 'NONE', #128, #95, #180, .T. ) ;
#108 = VECTOR ( 'NONE', #118, 1000.000000000000000 ) ;
#109 = CARTESIAN_POINT ( 'NONE',  ( 6.349999999999998800, -6.349999999999998800, -3.000000000000000000 ) ) ;
#110 = EDGE_CURVE ( 'NONE', #48, #128, #31, .T. ) ;
#111 = CARTESIAN_POINT ( 'NONE',  ( -6.350000000000000500, -6.350000000000000500, -3.000000000000000000 ) ) ;
#112 = PLANE ( 'NONE',  #39 ) ;
#113 = CARTESIAN_POINT ( 'NONE',  ( 6.349999999999998800, -6.349999999999998800, 3.000000000000000000 ) ) ;
#114 = APPLICATION_PROTOCOL_DEFINITION ( 'international standard', 'config_control_design', 1994, #116 ) ;
#115 = DIRECTION ( 'NONE',  ( 0.0000000000000000000, 1.000000000000000000, 0.0000000000000000000 ) ) ;
#116 = APPLICATION_CONTEXT ( 'configuration controlled 3d designs of mechanical parts and assemblies' ) ;
#117 = APPROVAL_DATE_TIME ( #162, #158 ) ;
#118 = DIRECTION ( 'NONE',  ( -0.0000000000000000000, -0.0000000000000000000, -1.000000000000000000 ) ) ;
#119 = PERSON_AND_ORGANIZATION_ROLE ( 'creator' ) ;
#120 = ADVANCED_FACE ( 'NONE', ( #19 ), #93, .F. ) ;
#121 = PRODUCT_DEFINITION_FORMATION_WITH_SPECIFIED_SOURCE ( 'ANY', '', #146, .NOT_KNOWN. ) ;
#122 = ORIENTED_EDGE ( 'NONE', *, *, #176, .T. ) ;
#123 = MANIFOLD_SOLID_BREP ( 'Boss-Extrude1', #55 ) ;
#124 = FACE_OUTER_BOUND ( 'NONE', #182, .T. ) ;
#125 = CC_DESIGN_PERSON_AND_ORGANIZATION_ASSIGNMENT ( #60, #204, ( #146 ) ) ;
#126 = EDGE_CURVE ( 'NONE', #145, #48, #157, .T. ) ;
#127 = ORGANIZATION ( 'UNSPECIFIED', 'UNSPECIFIED', '' ) ;
#128 = VERTEX_POINT ( 'NONE', #7 ) ;
#129 = LOCAL_TIME ( 9, 2, 46.00000000000000000, #148 ) ;
#130 = DIRECTION ( 'NONE',  ( -1.000000000000000000, -1.365923996832131600E-016, 0.0000000000000000000 ) ) ;
#131 = PERSON_AND_ORGANIZATION ( #54, #127 ) ;
#132 = SECURITY_CLASSIFICATION ( '', '', #174 ) ;
#133 = DIRECTION ( 'NONE',  ( 1.000000000000000000, 1.365923996832131600E-016, 0.0000000000000000000 ) ) ;
#134 = VECTOR ( 'NONE', #183, 1000.000000000000000 ) ;
#135 = VERTEX_POINT ( 'NONE', #219 ) ;
#136 = PERSON_AND_ORGANIZATION_ROLE ( 'design_supplier' ) ;
#137 =( NAMED_UNIT ( * ) SI_UNIT ( $, .STERADIAN. ) SOLID_ANGLE_UNIT ( ) );
#138 = APPROVAL_PERSON_ORGANIZATION ( #178, #198, #81 ) ;
#139 = ORIENTED_EDGE ( 'NONE', *, *, #38, .F. ) ;
#140 = ADVANCED_FACE ( 'NONE', ( #34 ), #112, .F. ) ;
#141 = EDGE_CURVE ( 'NONE', #160, #95, #214, .T. ) ;
#142 = ORIENTED_EDGE ( 'NONE', *, *, #220, .T. ) ;
#143 = PERSON_AND_ORGANIZATION ( #54, #127 ) ;
#144 = VECTOR ( 'NONE', #115, 1000.000000000000000 ) ;
#145 = VERTEX_POINT ( 'NONE', #25 ) ;
#146 = PRODUCT ( 'Web Model 64397MX_64400', 'Web Model 64397MX_64400', '', ( #77 ) ) ;
#147 = AXIS2_PLACEMENT_3D ( 'NONE', #59, #10, #191 ) ;
#148 = COORDINATED_UNIVERSAL_TIME_OFFSET ( 5, 0, .BEHIND. ) ;
#149 = DIRECTION ( 'NONE',  ( 0.0000000000000000000, 0.0000000000000000000, -1.000000000000000000 ) ) ;
#150 = LOCAL_TIME ( 9, 2, 46.00000000000000000, #13 ) ;
#151 = DIRECTION ( 'NONE',  ( 0.0000000000000000000, -0.0000000000000000000, 1.000000000000000000 ) ) ;
#152 = ORIENTED_EDGE ( 'NONE', *, *, #141, .T. ) ;
#153 = DIRECTION ( 'NONE',  ( 1.365923996832131600E-016, -1.000000000000000000, 0.0000000000000000000 ) ) ;
#154 = CARTESIAN_POINT ( 'NONE',  ( -6.350000000000000500, -6.350000000000000500, 3.000000000000000000 ) ) ;
#155 = PERSON_AND_ORGANIZATION ( #54, #127 ) ;
#156 = CC_DESIGN_APPROVAL ( #158, ( #80 ) ) ;
#157 = LINE ( 'NONE', #43, #194 ) ;
#158 = APPROVAL ( #171, 'UNSPECIFIED' ) ;
#159 = VECTOR ( 'NONE', #99, 1000.000000000000000 ) ;
#160 = VERTEX_POINT ( 'NONE', #164 ) ;
#161 = COORDINATED_UNIVERSAL_TIME_OFFSET ( 5, 0, .BEHIND. ) ;
#162 = DATE_AND_TIME ( #68, #33 ) ;
#163 = VECTOR ( 'NONE', #27, 1000.000000000000000 ) ;
#164 = CARTESIAN_POINT ( 'NONE',  ( -6.350000000000000500, -6.350000000000000500, 3.000000000000000000 ) ) ;
#165 = CARTESIAN_POINT ( 'NONE',  ( -6.350000000000000500, -6.350000000000000500, 3.000000000000000000 ) ) ;
#166 = LINE ( 'NONE', #222, #159 ) ;
#167 = DIRECTION ( 'NONE',  ( -1.000000000000000000, -1.365923996832131600E-016, 0.0000000000000000000 ) ) ;
#168 = DIRECTION ( 'NONE',  ( 0.0000000000000000000, 0.0000000000000000000, 1.000000000000000000 ) ) ;
#169 = PRODUCT_RELATED_PRODUCT_CATEGORY ( 'detail', '', ( #146 ) ) ;
#170 = LINE ( 'NONE', #189, #163 ) ;
#171 = APPROVAL_STATUS ( 'not_yet_approved' ) ;
#172 = LINE ( 'NONE', #109, #210 ) ;
#173 = APPROVAL_DATE_TIME ( #217, #198 ) ;
#174 = SECURITY_CLASSIFICATION_LEVEL ( 'unclassified' ) ;
#175 = ADVANCED_FACE ( 'NONE', ( #52 ), #14, .F. ) ;
#176 = EDGE_CURVE ( 'NONE', #82, #145, #9, .T. ) ;
#177 = EDGE_LOOP ( 'NONE', ( #103, #84, #236, #139 ) ) ;
#178 = PERSON_AND_ORGANIZATION ( #54, #127 ) ;
#179 = ORIENTED_EDGE ( 'NONE', *, *, #126, .F. ) ;
#180 = LINE ( 'NONE', #111, #28 ) ;
#181 = CC_DESIGN_PERSON_AND_ORGANIZATION_ASSIGNMENT ( #232, #119, ( #121 ) ) ;
#182 = EDGE_LOOP ( 'NONE', ( #206, #179, #63, #233 ) ) ;
#183 = DIRECTION ( 'NONE',  ( -0.0000000000000000000, -1.000000000000000000, -0.0000000000000000000 ) ) ;
#184 = AXIS2_PLACEMENT_3D ( 'NONE', #40, #71, #130 ) ;
#185 = LOCAL_TIME ( 9, 2, 46.00000000000000000, #85 ) ;
#186 = CARTESIAN_POINT ( 'NONE',  ( 6.349999999999998800, -6.349999999999998800, 3.000000000000000000 ) ) ;
#187 = ORIENTED_EDGE ( 'NONE', *, *, #107, .T. ) ;
#188 = CARTESIAN_POINT ( 'NONE',  ( 6.349999999999998800, -6.349999999999998800, 3.000000000000000000 ) ) ;
#189 = CARTESIAN_POINT ( 'NONE',  ( 6.349999999999998800, 6.350000000000000500, 3.000000000000000000 ) ) ;
#190 = EDGE_LOOP ( 'NONE', ( #50, #70, #57, #152 ) ) ;
#191 = DIRECTION ( 'NONE',  ( 1.000000000000000000, 0.0000000000000000000, 0.0000000000000000000 ) ) ;
#192 = APPROVAL_STATUS ( 'not_yet_approved' ) ;
#193 = APPROVAL_DATE_TIME ( #51, #235 ) ;
#194 = VECTOR ( 'NONE', #197, 1000.000000000000000 ) ;
#195 = ORIENTED_EDGE ( 'NONE', *, *, #141, .F. ) ;
#196 = EDGE_CURVE ( 'NONE', #160, #82, #94, .T. ) ;
#197 = DIRECTION ( 'NONE',  ( -0.0000000000000000000, -0.0000000000000000000, -1.000000000000000000 ) ) ;
#198 = APPROVAL ( #192, 'UNSPECIFIED' ) ;
#199 = COORDINATED_UNIVERSAL_TIME_OFFSET ( 5, 0, .BEHIND. ) ;
#200 = CARTESIAN_POINT ( 'NONE',  ( 0.0000000000000000000, 0.0000000000000000000, -3.000000000000000000 ) ) ;
#201 = DIRECTION ( 'NONE',  ( -0.0000000000000000000, -1.000000000000000000, -0.0000000000000000000 ) ) ;
#202 = DIRECTION ( 'NONE',  ( 1.000000000000000000, 1.365923996832131600E-016, -0.0000000000000000000 ) ) ;
#203 = DIRECTION ( 'NONE',  ( 1.000000000000000000, 1.365923996832131600E-016, -0.0000000000000000000 ) ) ;
#204 = PERSON_AND_ORGANIZATION_ROLE ( 'design_owner' ) ;
#205 = PERSON_AND_ORGANIZATION_ROLE ( 'creator' ) ;
#206 = ORIENTED_EDGE ( 'NONE', *, *, #237, .T. ) ;
#207 = ADVANCED_FACE ( 'NONE', ( #124 ), #26, .F. ) ;
#208 = EDGE_CURVE ( 'NONE', #229, #128, #227, .T. ) ;
#209 = PERSON_AND_ORGANIZATION ( #54, #127 ) ;
#210 = VECTOR ( 'NONE', #202, 1000.000000000000000 ) ;
#211 = VECTOR ( 'NONE', #97, 1000.000000000000000 ) ;
#212 = FACE_OUTER_BOUND ( 'NONE', #190, .T. ) ;
#213 = CC_DESIGN_APPROVAL ( #198, ( #132 ) ) ;
#214 = LINE ( 'NONE', #154, #108 ) ;
#215 = LINE ( 'NONE', #165, #134 ) ;
#216 = CARTESIAN_POINT ( 'NONE',  ( 0.0000000000000000000, 0.0000000000000000000, 3.000000000000000000 ) ) ;
#217 = DATE_AND_TIME ( #36, #129 ) ;
#218 = DIRECTION ( 'NONE',  ( 0.0000000000000000000, -0.0000000000000000000, 1.000000000000000000 ) ) ;
#219 = CARTESIAN_POINT ( 'NONE',  ( 6.349999999999998800, -6.349999999999998800, -3.000000000000000000 ) ) ;
#220 = EDGE_CURVE ( 'NONE', #145, #229, #170, .T. ) ;
#221 = CC_DESIGN_PERSON_AND_ORGANIZATION_ASSIGNMENT ( #143, #205, ( #80 ) ) ;
#222 = CARTESIAN_POINT ( 'NONE',  ( 6.349999999999998800, -6.349999999999998800, -3.000000000000000000 ) ) ;
#223 = APPLICATION_PROTOCOL_DEFINITION ( 'international standard', 'config_control_design', 1994, #75 ) ;
#224 = CARTESIAN_POINT ( 'NONE',  ( 6.349999999999998800, -6.349999999999998800, 3.000000000000000000 ) ) ;
#225 = DATE_TIME_ROLE ( 'creation_date' ) ;
#226 = CALENDAR_DATE ( 2017, 30, 10 ) ;
#227 = LINE ( 'NONE', #11, #211 ) ;
#228 = ORIENTED_EDGE ( 'NONE', *, *, #126, .T. ) ;
#229 = VERTEX_POINT ( 'NONE', #46 ) ;
#230 = DESIGN_CONTEXT ( 'detailed design', #116, 'design' ) ;
#231 = AXIS2_PLACEMENT_3D ( 'NONE', #216, #151, #72 ) ;
#232 = PERSON_AND_ORGANIZATION ( #54, #127 ) ;
#233 = ORIENTED_EDGE ( 'NONE', *, *, #44, .T. ) ;
#234 = AXIS2_PLACEMENT_3D ( 'NONE', #67, #89, #149 ) ;
#235 = APPROVAL ( #100, 'UNSPECIFIED' ) ;
#236 = ORIENTED_EDGE ( 'NONE', *, *, #237, .F. ) ;
#237 = EDGE_CURVE ( 'NONE', #135, #48, #166, .T. ) ;
ENDSEC;
END-ISO-10303-21;
