ISO-10303-21;
HEADER;
FILE_DESCRIPTION (( 'STEP AP203' ),
    '1' );
FILE_NAME ('Web Model 34601_13361.step',
    '2020-11-04T13:24:20',
    ( '' ),
    ( '' ),
    'SwSTEP 2.0',
    'SolidWorks 2018',
    '' );
FILE_SCHEMA (( 'CONFIG_CONTROL_DESIGN' ));
ENDSEC;

DATA;
#1 = ORIENTED_EDGE ( 'NONE', *, *, #78, .T. ) ;
#2 = CC_DESIGN_PERSON_AND_ORGANIZATION_ASSIGNMENT ( #55, #10, ( #103 ) ) ;
#3 = DATE_AND_TIME ( #79, #16 ) ;
#4 = DIRECTION ( 'NONE',  ( -1.000000000000000000, 0.0000000000000000000, 0.0000000000000000000 ) ) ;
#5 = CARTESIAN_POINT ( 'NONE',  ( 25.00000000000000000, 3.061616997868383043E-15, 1.500000000000000000 ) ) ;
#6 = ORIENTED_EDGE ( 'NONE', *, *, #108, .F. ) ;
#7 = PERSON ( 'UNSPECIFIED', 'UNSPECIFIED', 'UNSPECIFIED', ('UNSPECIFIED'), ('UNSPECIFIED'), ('UNSPECIFIED') ) ;
#8 = CARTESIAN_POINT ( 'NONE',  ( -25.00000000000000000, 0.0000000000000000000, -1.500000000000000000 ) ) ;
#9 = APPROVAL_STATUS ( 'not_yet_approved' ) ;
#10 = PERSON_AND_ORGANIZATION_ROLE ( 'classification_officer' ) ;
#11 = DIRECTION ( 'NONE',  ( 1.000000000000000000, 0.0000000000000000000, -0.0000000000000000000 ) ) ;
#12 =( NAMED_UNIT ( * ) SI_UNIT ( $, .STERADIAN. ) SOLID_ANGLE_UNIT ( ) );
#13 = AXIS2_PLACEMENT_3D ( 'NONE', #70, #161, #4 ) ;
#14 = COORDINATED_UNIVERSAL_TIME_OFFSET ( 5, 0, .BEHIND. ) ;
#15 = ORIENTED_EDGE ( 'NONE', *, *, #78, .F. ) ;
#16 = LOCAL_TIME ( 8, 24, 20.00000000000000000, #150 ) ;
#17 = CC_DESIGN_PERSON_AND_ORGANIZATION_ASSIGNMENT ( #100, #136, ( #159 ) ) ;
#18 = PERSON_AND_ORGANIZATION ( #7, #93 ) ;
#19 = COORDINATED_UNIVERSAL_TIME_OFFSET ( 5, 0, .BEHIND. ) ;
#20 = CARTESIAN_POINT ( 'NONE',  ( 0.0000000000000000000, 0.0000000000000000000, 1.500000000000000000 ) ) ;
#21 = COORDINATED_UNIVERSAL_TIME_OFFSET ( 5, 0, .BEHIND. ) ;
#22 =( NAMED_UNIT ( * ) PLANE_ANGLE_UNIT ( ) SI_UNIT ( $, .RADIAN. ) );
#23 = CC_DESIGN_SECURITY_CLASSIFICATION ( #103, ( #133 ) ) ;
#24 = CARTESIAN_POINT ( 'NONE',  ( 0.0000000000000000000, 0.0000000000000000000, 1.500000000000000000 ) ) ;
#25 = CALENDAR_DATE ( 2020, 4, 11 ) ;
#26 = APPLICATION_PROTOCOL_DEFINITION ( 'international standard', 'config_control_design', 1994, #89 ) ;
#27 = VECTOR ( 'NONE', #77, 1000.000000000000000 ) ;
#28 = EDGE_CURVE ( 'NONE', #68, #105, #66, .T. ) ;
#29 = PRODUCT_RELATED_PRODUCT_CATEGORY ( 'detail', '', ( #90 ) ) ;
#30 = DIRECTION ( 'NONE',  ( 1.000000000000000000, 0.0000000000000000000, 0.0000000000000000000 ) ) ;
#31 = AXIS2_PLACEMENT_3D ( 'NONE', #20, #120, #146 ) ;
#32 = APPROVAL_ROLE ( '' ) ;
#33 = DATE_TIME_ROLE ( 'creation_date' ) ;
#34 = APPROVAL_STATUS ( 'not_yet_approved' ) ;
#35 = LOCAL_TIME ( 8, 24, 20.00000000000000000, #14 ) ;
#36 = DIRECTION ( 'NONE',  ( 1.000000000000000000, 0.0000000000000000000, 0.0000000000000000000 ) ) ;
#37 = ORIENTED_EDGE ( 'NONE', *, *, #91, .T. ) ;
#38 = ADVANCED_FACE ( 'NONE', ( #124 ), #165, .T. ) ;
#39 = LOCAL_TIME ( 8, 24, 20.00000000000000000, #57 ) ;
#40 = AXIS2_PLACEMENT_3D ( 'NONE', #163, #164, #30 ) ;
#41 = APPROVAL_DATE_TIME ( #3, #56 ) ;
#42 = DIRECTION ( 'NONE',  ( 0.0000000000000000000, 0.0000000000000000000, 1.000000000000000000 ) ) ;
#43 = PLANE ( 'NONE',  #128 ) ;
#44 = LOCAL_TIME ( 8, 24, 20.00000000000000000, #21 ) ;
#45 = CARTESIAN_POINT ( 'NONE',  ( 0.0000000000000000000, 0.0000000000000000000, -1.500000000000000000 ) ) ;
#46 = DIRECTION ( 'NONE',  ( 0.0000000000000000000, 0.0000000000000000000, 1.000000000000000000 ) ) ;
#47 = EDGE_LOOP ( 'NONE', ( #141, #15 ) ) ;
#48 = PERSON_AND_ORGANIZATION ( #7, #93 ) ;
#49 = PRODUCT_DEFINITION_SHAPE ( 'NONE', 'NONE',  #159 ) ;
#50 = CC_DESIGN_PERSON_AND_ORGANIZATION_ASSIGNMENT ( #60, #97, ( #133 ) ) ;
#51 = LOCAL_TIME ( 8, 24, 20.00000000000000000, #19 ) ;
#52 = ADVANCED_FACE ( 'NONE', ( #144 ), #53, .T. ) ;
#53 = CYLINDRICAL_SURFACE ( 'NONE', #31, 25.00000000000000000 ) ;
#54 = ADVANCED_BREP_SHAPE_REPRESENTATION ( 'Web Model 34601_13361', ( #162, #147 ), #67 ) ;
#55 = PERSON_AND_ORGANIZATION ( #7, #93 ) ;
#56 = APPROVAL ( #34, 'UNSPECIFIED' ) ;
#57 = COORDINATED_UNIVERSAL_TIME_OFFSET ( 5, 0, .BEHIND. ) ;
#58 = CARTESIAN_POINT ( 'NONE',  ( 25.00000000000000000, 3.061616997868383043E-15, -1.500000000000000000 ) ) ;
#59 = CC_DESIGN_PERSON_AND_ORGANIZATION_ASSIGNMENT ( #92, #110, ( #133 ) ) ;
#60 = PERSON_AND_ORGANIZATION ( #7, #93 ) ;
#61 = CARTESIAN_POINT ( 'NONE',  ( -25.00000000000000000, 0.0000000000000000000, 1.500000000000000000 ) ) ;
#62 = SECURITY_CLASSIFICATION_LEVEL ( 'unclassified' ) ;
#63 = CIRCLE ( 'NONE', #142, 25.00000000000000000 ) ;
#64 = DIRECTION ( 'NONE',  ( 0.0000000000000000000, 0.0000000000000000000, 1.000000000000000000 ) ) ;
#65 = CC_DESIGN_DATE_AND_TIME_ASSIGNMENT ( #118, #33, ( #159 ) ) ;
#66 = LINE ( 'NONE', #69, #122 ) ;
#67 =( GEOMETRIC_REPRESENTATION_CONTEXT ( 3 ) GLOBAL_UNCERTAINTY_ASSIGNED_CONTEXT ( ( #135 ) ) GLOBAL_UNIT_ASSIGNED_CONTEXT ( ( #125, #22, #12 ) ) REPRESENTATION_CONTEXT ( 'NONE', 'WORKASPACE' ) );
#68 = VERTEX_POINT ( 'NONE', #5 ) ;
#69 = CARTESIAN_POINT ( 'NONE',  ( 25.00000000000000000, 3.061616997868383043E-15, 1.500000000000000000 ) ) ;
#70 = CARTESIAN_POINT ( 'NONE',  ( 0.0000000000000000000, 0.0000000000000000000, 1.500000000000000000 ) ) ;
#71 = EDGE_CURVE ( 'NONE', #107, #68, #114, .T. ) ;
#72 = EDGE_LOOP ( 'NONE', ( #174, #83, #153, #111 ) ) ;
#73 = SHAPE_DEFINITION_REPRESENTATION ( #49, #54 ) ;
#74 = APPLICATION_CONTEXT ( 'configuration controlled 3d designs of mechanical parts and assemblies' ) ;
#75 = DIRECTION ( 'NONE',  ( 1.000000000000000000, 0.0000000000000000000, 0.0000000000000000000 ) ) ;
#76 = AXIS2_PLACEMENT_3D ( 'NONE', #24, #112, #75 ) ;
#77 = DIRECTION ( 'NONE',  ( -0.0000000000000000000, -0.0000000000000000000, -1.000000000000000000 ) ) ;
#78 = EDGE_CURVE ( 'NONE', #105, #129, #154, .T. ) ;
#79 = CALENDAR_DATE ( 2020, 4, 11 ) ;
#80 = CC_DESIGN_APPROVAL ( #56, ( #133 ) ) ;
#81 = APPROVAL_DATE_TIME ( #158, #168 ) ;
#82 = CC_DESIGN_APPROVAL ( #117, ( #103 ) ) ;
#83 = ORIENTED_EDGE ( 'NONE', *, *, #71, .F. ) ;
#84 = CARTESIAN_POINT ( 'NONE',  ( 0.0000000000000000000, 0.0000000000000000000, -1.500000000000000000 ) ) ;
#85 = APPROVAL_PERSON_ORGANIZATION ( #104, #117, #98 ) ;
#86 = APPROVAL_STATUS ( 'not_yet_approved' ) ;
#87 = MECHANICAL_CONTEXT ( 'NONE', #74, 'mechanical' ) ;
#88 = DIRECTION ( 'NONE',  ( 0.0000000000000000000, 0.0000000000000000000, 1.000000000000000000 ) ) ;
#89 = APPLICATION_CONTEXT ( 'configuration controlled 3d designs of mechanical parts and assemblies' ) ;
#90 = PRODUCT ( 'Web Model 34601_13361', 'Web Model 34601_13361', '', ( #87 ) ) ;
#91 = EDGE_CURVE ( 'NONE', #68, #107, #127, .T. ) ;
#92 = PERSON_AND_ORGANIZATION ( #7, #93 ) ;
#93 = ORGANIZATION ( 'UNSPECIFIED', 'UNSPECIFIED', '' ) ;
#94 = APPROVAL_PERSON_ORGANIZATION ( #48, #168, #32 ) ;
#95 = FACE_OUTER_BOUND ( 'NONE', #130, .T. ) ;
#96 = EDGE_LOOP ( 'NONE', ( #131, #116, #1, #6 ) ) ;
#97 = PERSON_AND_ORGANIZATION_ROLE ( 'creator' ) ;
#98 = APPROVAL_ROLE ( '' ) ;
#99 = AXIS2_PLACEMENT_3D ( 'NONE', #84, #46, #36 ) ;
#100 = PERSON_AND_ORGANIZATION ( #7, #93 ) ;
#101 = CARTESIAN_POINT ( 'NONE',  ( 0.0000000000000000000, 0.0000000000000000000, 1.500000000000000000 ) ) ;
#102 = ADVANCED_FACE ( 'NONE', ( #170 ), #171, .F. ) ;
#103 = SECURITY_CLASSIFICATION ( '', '', #62 ) ;
#104 = PERSON_AND_ORGANIZATION ( #7, #93 ) ;
#105 = VERTEX_POINT ( 'NONE', #58 ) ;
#106 = DATE_AND_TIME ( #166, #35 ) ;
#107 = VERTEX_POINT ( 'NONE', #61 ) ;
#108 = EDGE_CURVE ( 'NONE', #107, #129, #175, .T. ) ;
#109 = CC_DESIGN_DATE_AND_TIME_ASSIGNMENT ( #156, #151, ( #103 ) ) ;
#110 = PERSON_AND_ORGANIZATION_ROLE ( 'design_supplier' ) ;
#111 = ORIENTED_EDGE ( 'NONE', *, *, #143, .T. ) ;
#112 = DIRECTION ( 'NONE',  ( 0.0000000000000000000, 0.0000000000000000000, 1.000000000000000000 ) ) ;
#113 = APPROVAL_PERSON_ORGANIZATION ( #18, #56, #148 ) ;
#114 = CIRCLE ( 'NONE', #40, 25.00000000000000000 ) ;
#115 = CC_DESIGN_APPROVAL ( #168, ( #159 ) ) ;
#116 = ORIENTED_EDGE ( 'NONE', *, *, #28, .T. ) ;
#117 = APPROVAL ( #86, 'UNSPECIFIED' ) ;
#118 = DATE_AND_TIME ( #119, #51 ) ;
#119 = CALENDAR_DATE ( 2020, 4, 11 ) ;
#120 = DIRECTION ( 'NONE',  ( -0.0000000000000000000, -0.0000000000000000000, -1.000000000000000000 ) ) ;
#121 = DIRECTION ( 'NONE',  ( 1.000000000000000000, 0.0000000000000000000, -0.0000000000000000000 ) ) ;
#122 = VECTOR ( 'NONE', #132, 1000.000000000000000 ) ;
#123 = DIRECTION ( 'NONE',  ( 1.000000000000000000, 0.0000000000000000000, 0.0000000000000000000 ) ) ;
#124 = FACE_OUTER_BOUND ( 'NONE', #96, .T. ) ;
#125 =( LENGTH_UNIT ( ) NAMED_UNIT ( * ) SI_UNIT ( .MILLI., .METRE. ) );
#126 = ADVANCED_FACE ( 'NONE', ( #95 ), #43, .T. ) ;
#127 = CIRCLE ( 'NONE', #76, 25.00000000000000000 ) ;
#128 = AXIS2_PLACEMENT_3D ( 'NONE', #101, #88, #11 ) ;
#129 = VERTEX_POINT ( 'NONE', #8 ) ;
#130 = EDGE_LOOP ( 'NONE', ( #134, #37 ) ) ;
#131 = ORIENTED_EDGE ( 'NONE', *, *, #91, .F. ) ;
#132 = DIRECTION ( 'NONE',  ( -0.0000000000000000000, -0.0000000000000000000, -1.000000000000000000 ) ) ;
#133 = PRODUCT_DEFINITION_FORMATION_WITH_SPECIFIED_SOURCE ( 'ANY', '', #90, .NOT_KNOWN. ) ;
#134 = ORIENTED_EDGE ( 'NONE', *, *, #71, .T. ) ;
#135 = UNCERTAINTY_MEASURE_WITH_UNIT (LENGTH_MEASURE( 1.000000000000000082E-05 ), #125, 'distance_accuracy_value', 'NONE');
#136 = PERSON_AND_ORGANIZATION_ROLE ( 'creator' ) ;
#137 = PERSON_AND_ORGANIZATION_ROLE ( 'design_owner' ) ;
#138 = CALENDAR_DATE ( 2020, 4, 11 ) ;
#139 = DIRECTION ( 'NONE',  ( 0.0000000000000000000, 0.0000000000000000000, 1.000000000000000000 ) ) ;
#140 = CARTESIAN_POINT ( 'NONE',  ( 0.0000000000000000000, 0.0000000000000000000, 0.0000000000000000000 ) ) ;
#141 = ORIENTED_EDGE ( 'NONE', *, *, #143, .F. ) ;
#142 = AXIS2_PLACEMENT_3D ( 'NONE', #172, #42, #123 ) ;
#143 = EDGE_CURVE ( 'NONE', #129, #105, #63, .T. ) ;
#144 = FACE_OUTER_BOUND ( 'NONE', #72, .T. ) ;
#145 = PERSON_AND_ORGANIZATION ( #7, #93 ) ;
#146 = DIRECTION ( 'NONE',  ( -1.000000000000000000, 0.0000000000000000000, 0.0000000000000000000 ) ) ;
#147 = AXIS2_PLACEMENT_3D ( 'NONE', #140, #64, #167 ) ;
#148 = APPROVAL_ROLE ( '' ) ;
#149 = DESIGN_CONTEXT ( 'detailed design', #89, 'design' ) ;
#150 = COORDINATED_UNIVERSAL_TIME_OFFSET ( 5, 0, .BEHIND. ) ;
#151 = DATE_TIME_ROLE ( 'classification_date' ) ;
#152 = CARTESIAN_POINT ( 'NONE',  ( -25.00000000000000000, 0.0000000000000000000, 1.500000000000000000 ) ) ;
#153 = ORIENTED_EDGE ( 'NONE', *, *, #108, .T. ) ;
#154 = CIRCLE ( 'NONE', #99, 25.00000000000000000 ) ;
#155 = CC_DESIGN_PERSON_AND_ORGANIZATION_ASSIGNMENT ( #145, #137, ( #90 ) ) ;
#156 = DATE_AND_TIME ( #138, #44 ) ;
#157 = CLOSED_SHELL ( 'NONE', ( #38, #52, #126, #102 ) ) ;
#158 = DATE_AND_TIME ( #25, #39 ) ;
#159 = PRODUCT_DEFINITION ( 'UNKNOWN', '', #133, #149 ) ;
#160 = APPROVAL_DATE_TIME ( #106, #117 ) ;
#161 = DIRECTION ( 'NONE',  ( -0.0000000000000000000, -0.0000000000000000000, -1.000000000000000000 ) ) ;
#162 = MANIFOLD_SOLID_BREP ( 'Boss-Extrude1', #157 ) ;
#163 = CARTESIAN_POINT ( 'NONE',  ( 0.0000000000000000000, 0.0000000000000000000, 1.500000000000000000 ) ) ;
#164 = DIRECTION ( 'NONE',  ( 0.0000000000000000000, 0.0000000000000000000, 1.000000000000000000 ) ) ;
#165 = CYLINDRICAL_SURFACE ( 'NONE', #13, 25.00000000000000000 ) ;
#166 = CALENDAR_DATE ( 2020, 4, 11 ) ;
#167 = DIRECTION ( 'NONE',  ( 1.000000000000000000, 0.0000000000000000000, 0.0000000000000000000 ) ) ;
#168 = APPROVAL ( #9, 'UNSPECIFIED' ) ;
#169 = APPLICATION_PROTOCOL_DEFINITION ( 'international standard', 'config_control_design', 1994, #74 ) ;
#170 = FACE_OUTER_BOUND ( 'NONE', #47, .T. ) ;
#171 = PLANE ( 'NONE',  #173 ) ;
#172 = CARTESIAN_POINT ( 'NONE',  ( 0.0000000000000000000, 0.0000000000000000000, -1.500000000000000000 ) ) ;
#173 = AXIS2_PLACEMENT_3D ( 'NONE', #45, #139, #121 ) ;
#174 = ORIENTED_EDGE ( 'NONE', *, *, #28, .F. ) ;
#175 = LINE ( 'NONE', #152, #27 ) ;
ENDSEC;
END-ISO-10303-21;
