ISO-10303-21;
HEADER;
FILE_DESCRIPTION (( 'STEP AP203' ),
    '1' );
FILE_NAME ('Web Model 49625.STEP',
    '2017-01-31T15:23:09',
    ( '' ),
    ( '' ),
    'SwSTEP 2.0',
    'SolidWorks 2016',
    '' );
FILE_SCHEMA (( 'CONFIG_CONTROL_DESIGN' ));
ENDSEC;

DATA;
#1 = DIRECTION ( 'NONE',  ( -1.000000000000000000, -0.0000000000000000000, -0.0000000000000000000 ) ) ;
#2 = DATE_AND_TIME ( #207, #164 ) ;
#3 = DATE_AND_TIME ( #81, #26 ) ;
#4 = FACE_OUTER_BOUND ( 'NONE', #123, .T. ) ;
#5 = VERTEX_POINT ( 'NONE', #16 ) ;
#6 = DATE_TIME_ROLE ( 'classification_date' ) ;
#7 = APPROVAL_ROLE ( '' ) ;
#8 = DIRECTION ( 'NONE',  ( 0.0000000000000000000, 0.0000000000000000000, 1.000000000000000000 ) ) ;
#9 = DIRECTION ( 'NONE',  ( -0.0000000000000000000, 1.000000000000000000, -0.0000000000000000000 ) ) ;
#10 = VECTOR ( 'NONE', #114, 1000.000000000000000 ) ;
#11 = CC_DESIGN_PERSON_AND_ORGANIZATION_ASSIGNMENT ( #58, #176, ( #75 ) ) ;
#12 = DATE_AND_TIME ( #133, #198 ) ;
#13 = AXIS2_PLACEMENT_3D ( 'NONE', #229, #166, #178 ) ;
#14 = LINE ( 'NONE', #154, #208 ) ;
#15 = CARTESIAN_POINT ( 'NONE',  ( -12.50000000000000000, 12.50000000000000000, 0.0000000000000000000 ) ) ;
#16 = CARTESIAN_POINT ( 'NONE',  ( 12.50000000000000000, -12.50000000000000000, 0.0000000000000000000 ) ) ;
#17 = DATE_AND_TIME ( #65, #191 ) ;
#18 = VERTEX_POINT ( 'NONE', #202 ) ;
#19 = PERSON_AND_ORGANIZATION ( #99, #112 ) ;
#20 = CARTESIAN_POINT ( 'NONE',  ( -12.50000000000000000, -12.50000000000000000, 0.0000000000000000000 ) ) ;
#21 = ORIENTED_EDGE ( 'NONE', *, *, #56, .F. ) ;
#22 = CARTESIAN_POINT ( 'NONE',  ( 0.0000000000000000000, 0.0000000000000000000, 0.0000000000000000000 ) ) ;
#23 = DATE_AND_TIME ( #175, #181 ) ;
#24 = DIRECTION ( 'NONE',  ( 1.000000000000000000, 0.0000000000000000000, 0.0000000000000000000 ) ) ;
#25 = CC_DESIGN_APPROVAL ( #52, ( #197 ) ) ;
#26 = LOCAL_TIME ( 10, 23, 9.000000000000000000, #121 ) ;
#27 = ORIENTED_EDGE ( 'NONE', *, *, #72, .F. ) ;
#28 = EDGE_CURVE ( 'NONE', #134, #91, #14, .T. ) ;
#29 = EDGE_CURVE ( 'NONE', #108, #83, #165, .T. ) ;
#30 = FACE_OUTER_BOUND ( 'NONE', #66, .T. ) ;
#31 = DIRECTION ( 'NONE',  ( -0.0000000000000000000, 1.000000000000000000, -0.0000000000000000000 ) ) ;
#32 = DIRECTION ( 'NONE',  ( 0.0000000000000000000, 1.000000000000000000, 0.0000000000000000000 ) ) ;
#33 = ORIENTED_EDGE ( 'NONE', *, *, #68, .T. ) ;
#34 = APPROVAL ( #44, 'UNSPECIFIED' ) ;
#35 = DIRECTION ( 'NONE',  ( -0.0000000000000000000, -0.0000000000000000000, -1.000000000000000000 ) ) ;
#36 = COORDINATED_UNIVERSAL_TIME_OFFSET ( 5, 0, .BEHIND. ) ;
#37 = ADVANCED_BREP_SHAPE_REPRESENTATION ( 'Web Model 49625', ( #206, #169 ), #86 ) ;
#38 = LINE ( 'NONE', #184, #93 ) ;
#39 = CARTESIAN_POINT ( 'NONE',  ( 12.50000000000000000, 12.50000000000000000, 4.000000000000000000 ) ) ;
#40 = ADVANCED_FACE ( 'NONE', ( #177 ), #171, .F. ) ;
#41 = LINE ( 'NONE', #135, #10 ) ;
#42 = SECURITY_CLASSIFICATION ( '', '', #122 ) ;
#43 = ORIENTED_EDGE ( 'NONE', *, *, #179, .T. ) ;
#44 = APPROVAL_STATUS ( 'not_yet_approved' ) ;
#45 = CARTESIAN_POINT ( 'NONE',  ( 12.50000000000000000, -12.50000000000000000, 4.000000000000000000 ) ) ;
#46 = DIRECTION ( 'NONE',  ( 0.0000000000000000000, -1.000000000000000000, 0.0000000000000000000 ) ) ;
#47 = VECTOR ( 'NONE', #9, 1000.000000000000000 ) ;
#48 = DIRECTION ( 'NONE',  ( -0.0000000000000000000, 0.0000000000000000000, 1.000000000000000000 ) ) ;
#49 = COORDINATED_UNIVERSAL_TIME_OFFSET ( 5, 0, .BEHIND. ) ;
#50 = DIRECTION ( 'NONE',  ( -1.000000000000000000, -0.0000000000000000000, -0.0000000000000000000 ) ) ;
#51 = APPROVAL_PERSON_ORGANIZATION ( #151, #52, #163 ) ;
#52 = APPROVAL ( #227, 'UNSPECIFIED' ) ;
#53 = ORIENTED_EDGE ( 'NONE', *, *, #182, .T. ) ;
#54 = ADVANCED_FACE ( 'NONE', ( #106 ), #88, .F. ) ;
#55 = VECTOR ( 'NONE', #219, 1000.000000000000000 ) ;
#56 = EDGE_CURVE ( 'NONE', #18, #168, #196, .T. ) ;
#57 = EDGE_CURVE ( 'NONE', #83, #18, #231, .T. ) ;
#58 = PERSON_AND_ORGANIZATION ( #99, #112 ) ;
#59 = MECHANICAL_CONTEXT ( 'NONE', #162, 'mechanical' ) ;
#60 = APPROVAL_STATUS ( 'not_yet_approved' ) ;
#61 = CARTESIAN_POINT ( 'NONE',  ( -12.50000000000000000, 12.50000000000000000, 0.0000000000000000000 ) ) ;
#62 = CARTESIAN_POINT ( 'NONE',  ( -12.50000000000000000, -12.50000000000000000, 0.0000000000000000000 ) ) ;
#63 = VECTOR ( 'NONE', #46, 1000.000000000000000 ) ;
#64 = CC_DESIGN_PERSON_AND_ORGANIZATION_ASSIGNMENT ( #116, #125, ( #42 ) ) ;
#65 = CALENDAR_DATE ( 2017, 31, 1 ) ;
#66 = EDGE_LOOP ( 'NONE', ( #225, #155, #148, #236 ) ) ;
#67 = AXIS2_PLACEMENT_3D ( 'NONE', #218, #32, #172 ) ;
#68 = EDGE_CURVE ( 'NONE', #134, #108, #41, .T. ) ;
#69 = DIRECTION ( 'NONE',  ( -0.0000000000000000000, 0.0000000000000000000, 1.000000000000000000 ) ) ;
#70 = ORIENTED_EDGE ( 'NONE', *, *, #157, .T. ) ;
#71 = SHAPE_DEFINITION_REPRESENTATION ( #192, #37 ) ;
#72 = EDGE_CURVE ( 'NONE', #108, #5, #201, .T. ) ;
#73 = ADVANCED_FACE ( 'NONE', ( #4 ), #161, .F. ) ;
#74 = CC_DESIGN_DATE_AND_TIME_ASSIGNMENT ( #12, #6, ( #42 ) ) ;
#75 = PRODUCT ( 'Web Model 49625', 'Web Model 49625', '', ( #59 ) ) ;
#76 = ORIENTED_EDGE ( 'NONE', *, *, #96, .T. ) ;
#77 = APPROVAL_ROLE ( '' ) ;
#78 = CARTESIAN_POINT ( 'NONE',  ( -12.50000000000000000, 12.50000000000000000, 0.0000000000000000000 ) ) ;
#79 = DIRECTION ( 'NONE',  ( 0.0000000000000000000, -1.000000000000000000, 0.0000000000000000000 ) ) ;
#80 = AXIS2_PLACEMENT_3D ( 'NONE', #220, #156, #138 ) ;
#81 = CALENDAR_DATE ( 2017, 31, 1 ) ;
#82 = FACE_OUTER_BOUND ( 'NONE', #193, .T. ) ;
#83 = VERTEX_POINT ( 'NONE', #98 ) ;
#84 = CC_DESIGN_DATE_AND_TIME_ASSIGNMENT ( #3, #102, ( #217 ) ) ;
#85 = ORIENTED_EDGE ( 'NONE', *, *, #234, .F. ) ;
#86 =( GEOMETRIC_REPRESENTATION_CONTEXT ( 3 ) GLOBAL_UNCERTAINTY_ASSIGNED_CONTEXT ( ( #150 ) ) GLOBAL_UNIT_ASSIGNED_CONTEXT ( ( #228, #215, #127 ) ) REPRESENTATION_CONTEXT ( 'NONE', 'WORKASPACE' ) );
#87 = APPROVAL_DATE_TIME ( #2, #89 ) ;
#88 = PLANE ( 'NONE',  #129 ) ;
#89 = APPROVAL ( #60, 'UNSPECIFIED' ) ;
#90 = DIRECTION ( 'NONE',  ( 1.000000000000000000, 0.0000000000000000000, 0.0000000000000000000 ) ) ;
#91 = VERTEX_POINT ( 'NONE', #20 ) ;
#92 = ORIENTED_EDGE ( 'NONE', *, *, #68, .F. ) ;
#93 = VECTOR ( 'NONE', #107, 1000.000000000000000 ) ;
#94 = ADVANCED_FACE ( 'NONE', ( #30 ), #205, .F. ) ;
#95 = VECTOR ( 'NONE', #1, 1000.000000000000000 ) ;
#96 = EDGE_CURVE ( 'NONE', #221, #168, #38, .T. ) ;
#97 = DESIGN_CONTEXT ( 'detailed design', #101, 'design' ) ;
#98 = CARTESIAN_POINT ( 'NONE',  ( 12.50000000000000000, 12.50000000000000000, 4.000000000000000000 ) ) ;
#99 = PERSON ( 'UNSPECIFIED', 'UNSPECIFIED', 'UNSPECIFIED', ('UNSPECIFIED'), ('UNSPECIFIED'), ('UNSPECIFIED') ) ;
#100 = ORIENTED_EDGE ( 'NONE', *, *, #28, .F. ) ;
#101 = APPLICATION_CONTEXT ( 'configuration controlled 3d designs of mechanical parts and assemblies' ) ;
#102 = DATE_TIME_ROLE ( 'creation_date' ) ;
#103 = APPROVAL_PERSON_ORGANIZATION ( #124, #89, #7 ) ;
#104 = PLANE ( 'NONE',  #13 ) ;
#105 = CARTESIAN_POINT ( 'NONE',  ( -12.50000000000000000, 12.50000000000000000, 4.000000000000000000 ) ) ;
#106 = FACE_OUTER_BOUND ( 'NONE', #149, .T. ) ;
#107 = DIRECTION ( 'NONE',  ( -0.0000000000000000000, -0.0000000000000000000, -1.000000000000000000 ) ) ;
#108 = VERTEX_POINT ( 'NONE', #45 ) ;
#109 = CC_DESIGN_APPROVAL ( #89, ( #42 ) ) ;
#110 = PERSON_AND_ORGANIZATION ( #99, #112 ) ;
#111 = LINE ( 'NONE', #78, #63 ) ;
#112 = ORGANIZATION ( 'UNSPECIFIED', 'UNSPECIFIED', '' ) ;
#113 = CARTESIAN_POINT ( 'NONE',  ( 12.50000000000000000, 12.50000000000000000, 4.000000000000000000 ) ) ;
#114 = DIRECTION ( 'NONE',  ( 1.000000000000000000, 0.0000000000000000000, 0.0000000000000000000 ) ) ;
#115 = APPROVAL_DATE_TIME ( #17, #52 ) ;
#116 = PERSON_AND_ORGANIZATION ( #99, #112 ) ;
#117 = AXIS2_PLACEMENT_3D ( 'NONE', #39, #140, #8 ) ;
#118 = COORDINATED_UNIVERSAL_TIME_OFFSET ( 5, 0, .BEHIND. ) ;
#119 = LINE ( 'NONE', #167, #210 ) ;
#120 = CC_DESIGN_SECURITY_CLASSIFICATION ( #42, ( #197 ) ) ;
#121 = COORDINATED_UNIVERSAL_TIME_OFFSET ( 5, 0, .BEHIND. ) ;
#122 = SECURITY_CLASSIFICATION_LEVEL ( 'unclassified' ) ;
#123 = EDGE_LOOP ( 'NONE', ( #43, #27, #92, #188 ) ) ;
#124 = PERSON_AND_ORGANIZATION ( #99, #112 ) ;
#125 = PERSON_AND_ORGANIZATION_ROLE ( 'classification_officer' ) ;
#126 = EDGE_LOOP ( 'NONE', ( #142, #33, #132, #70 ) ) ;
#127 =( NAMED_UNIT ( * ) SI_UNIT ( $, .STERADIAN. ) SOLID_ANGLE_UNIT ( ) );
#128 = CARTESIAN_POINT ( 'NONE',  ( 12.50000000000000000, 12.50000000000000000, 0.0000000000000000000 ) ) ;
#129 = AXIS2_PLACEMENT_3D ( 'NONE', #153, #69, #90 ) ;
#130 = PLANE ( 'NONE',  #233 ) ;
#131 = PERSON_AND_ORGANIZATION ( #99, #112 ) ;
#132 = ORIENTED_EDGE ( 'NONE', *, *, #29, .T. ) ;
#133 = CALENDAR_DATE ( 2017, 31, 1 ) ;
#134 = VERTEX_POINT ( 'NONE', #180 ) ;
#135 = CARTESIAN_POINT ( 'NONE',  ( -12.50000000000000000, -12.50000000000000000, 4.000000000000000000 ) ) ;
#136 = PRODUCT_RELATED_PRODUCT_CATEGORY ( 'detail', '', ( #75 ) ) ;
#137 = DIRECTION ( 'NONE',  ( -0.0000000000000000000, -0.0000000000000000000, -1.000000000000000000 ) ) ;
#138 = DIRECTION ( 'NONE',  ( 0.0000000000000000000, -0.0000000000000000000, -1.000000000000000000 ) ) ;
#139 = ORIENTED_EDGE ( 'NONE', *, *, #179, .F. ) ;
#140 = DIRECTION ( 'NONE',  ( -1.000000000000000000, 0.0000000000000000000, 0.0000000000000000000 ) ) ;
#141 = FACE_OUTER_BOUND ( 'NONE', #126, .T. ) ;
#142 = ORIENTED_EDGE ( 'NONE', *, *, #189, .T. ) ;
#143 = APPLICATION_PROTOCOL_DEFINITION ( 'international standard', 'config_control_design', 1994, #101 ) ;
#144 = VECTOR ( 'NONE', #31, 1000.000000000000000 ) ;
#145 = PERSON_AND_ORGANIZATION_ROLE ( 'creator' ) ;
#146 = COORDINATED_UNIVERSAL_TIME_OFFSET ( 5, 0, .BEHIND. ) ;
#147 = CARTESIAN_POINT ( 'NONE',  ( -12.50000000000000000, -12.50000000000000000, 4.000000000000000000 ) ) ;
#148 = ORIENTED_EDGE ( 'NONE', *, *, #29, .F. ) ;
#149 = EDGE_LOOP ( 'NONE', ( #187, #21, #85, #139 ) ) ;
#150 = UNCERTAINTY_MEASURE_WITH_UNIT (LENGTH_MEASURE( 1.000000000000000100E-005 ), #228, 'distance_accuracy_value', 'NONE');
#151 = PERSON_AND_ORGANIZATION ( #99, #112 ) ;
#152 = LINE ( 'NONE', #128, #47 ) ;
#153 = CARTESIAN_POINT ( 'NONE',  ( -12.50000000000000000, -12.50000000000000000, 0.0000000000000000000 ) ) ;
#154 = CARTESIAN_POINT ( 'NONE',  ( -12.50000000000000000, -12.50000000000000000, 4.000000000000000000 ) ) ;
#155 = ORIENTED_EDGE ( 'NONE', *, *, #57, .F. ) ;
#156 = DIRECTION ( 'NONE',  ( 0.0000000000000000000, -1.000000000000000000, 0.0000000000000000000 ) ) ;
#157 = EDGE_CURVE ( 'NONE', #83, #221, #230, .T. ) ;
#158 = ADVANCED_FACE ( 'NONE', ( #141 ), #130, .T. ) ;
#159 = EDGE_LOOP ( 'NONE', ( #174, #212, #214, #186 ) ) ;
#160 = CC_DESIGN_PERSON_AND_ORGANIZATION_ASSIGNMENT ( #19, #211, ( #197 ) ) ;
#161 = PLANE ( 'NONE',  #67 ) ;
#162 = APPLICATION_CONTEXT ( 'configuration controlled 3d designs of mechanical parts and assemblies' ) ;
#163 = APPROVAL_ROLE ( '' ) ;
#164 = LOCAL_TIME ( 10, 23, 9.000000000000000000, #146 ) ;
#165 = LINE ( 'NONE', #170, #144 ) ;
#166 = DIRECTION ( 'NONE',  ( 1.000000000000000000, 0.0000000000000000000, -0.0000000000000000000 ) ) ;
#167 = CARTESIAN_POINT ( 'NONE',  ( -12.50000000000000000, 12.50000000000000000, 4.000000000000000000 ) ) ;
#168 = VERTEX_POINT ( 'NONE', #61 ) ;
#169 = AXIS2_PLACEMENT_3D ( 'NONE', #22, #194, #213 ) ;
#170 = CARTESIAN_POINT ( 'NONE',  ( 12.50000000000000000, 12.50000000000000000, 4.000000000000000000 ) ) ;
#171 = PLANE ( 'NONE',  #80 ) ;
#172 = DIRECTION ( 'NONE',  ( 0.0000000000000000000, -0.0000000000000000000, 1.000000000000000000 ) ) ;
#173 = APPROVAL_DATE_TIME ( #23, #34 ) ;
#174 = ORIENTED_EDGE ( 'NONE', *, *, #56, .T. ) ;
#175 = CALENDAR_DATE ( 2017, 31, 1 ) ;
#176 = PERSON_AND_ORGANIZATION_ROLE ( 'design_owner' ) ;
#177 = FACE_OUTER_BOUND ( 'NONE', #159, .T. ) ;
#178 = DIRECTION ( 'NONE',  ( -0.0000000000000000000, 0.0000000000000000000, -1.000000000000000000 ) ) ;
#179 = EDGE_CURVE ( 'NONE', #91, #5, #190, .T. ) ;
#180 = CARTESIAN_POINT ( 'NONE',  ( -12.50000000000000000, -12.50000000000000000, 4.000000000000000000 ) ) ;
#181 = LOCAL_TIME ( 10, 23, 9.000000000000000000, #118 ) ;
#182 = EDGE_CURVE ( 'NONE', #168, #91, #111, .T. ) ;
#183 = DIRECTION ( 'NONE',  ( 1.000000000000000000, 0.0000000000000000000, 0.0000000000000000000 ) ) ;
#184 = CARTESIAN_POINT ( 'NONE',  ( -12.50000000000000000, 12.50000000000000000, 4.000000000000000000 ) ) ;
#185 = CC_DESIGN_PERSON_AND_ORGANIZATION_ASSIGNMENT ( #204, #226, ( #197 ) ) ;
#186 = ORIENTED_EDGE ( 'NONE', *, *, #57, .T. ) ;
#187 = ORIENTED_EDGE ( 'NONE', *, *, #182, .F. ) ;
#188 = ORIENTED_EDGE ( 'NONE', *, *, #28, .T. ) ;
#189 = EDGE_CURVE ( 'NONE', #221, #134, #119, .T. ) ;
#190 = LINE ( 'NONE', #62, #199 ) ;
#191 = LOCAL_TIME ( 10, 23, 9.000000000000000000, #49 ) ;
#192 = PRODUCT_DEFINITION_SHAPE ( 'NONE', 'NONE',  #217 ) ;
#193 = EDGE_LOOP ( 'NONE', ( #53, #100, #232, #76 ) ) ;
#194 = DIRECTION ( 'NONE',  ( 0.0000000000000000000, 0.0000000000000000000, 1.000000000000000000 ) ) ;
#195 = VECTOR ( 'NONE', #50, 1000.000000000000000 ) ;
#196 = LINE ( 'NONE', #15, #95 ) ;
#197 = PRODUCT_DEFINITION_FORMATION_WITH_SPECIFIED_SOURCE ( 'ANY', '', #75, .NOT_KNOWN. ) ;
#198 = LOCAL_TIME ( 10, 23, 9.000000000000000000, #36 ) ;
#199 = VECTOR ( 'NONE', #24, 1000.000000000000000 ) ;
#200 = APPROVAL_PERSON_ORGANIZATION ( #110, #34, #77 ) ;
#201 = LINE ( 'NONE', #237, #235 ) ;
#202 = CARTESIAN_POINT ( 'NONE',  ( 12.50000000000000000, 12.50000000000000000, 0.0000000000000000000 ) ) ;
#203 = CLOSED_SHELL ( 'NONE', ( #222, #73, #94, #40, #158, #54 ) ) ;
#204 = PERSON_AND_ORGANIZATION ( #99, #112 ) ;
#205 = PLANE ( 'NONE',  #117 ) ;
#206 = MANIFOLD_SOLID_BREP ( 'Extrude1', #203 ) ;
#207 = CALENDAR_DATE ( 2017, 31, 1 ) ;
#208 = VECTOR ( 'NONE', #137, 1000.000000000000000 ) ;
#209 = CC_DESIGN_PERSON_AND_ORGANIZATION_ASSIGNMENT ( #131, #145, ( #217 ) ) ;
#210 = VECTOR ( 'NONE', #79, 1000.000000000000000 ) ;
#211 = PERSON_AND_ORGANIZATION_ROLE ( 'creator' ) ;
#212 = ORIENTED_EDGE ( 'NONE', *, *, #96, .F. ) ;
#213 = DIRECTION ( 'NONE',  ( 1.000000000000000000, 0.0000000000000000000, 0.0000000000000000000 ) ) ;
#214 = ORIENTED_EDGE ( 'NONE', *, *, #157, .F. ) ;
#215 =( NAMED_UNIT ( * ) PLANE_ANGLE_UNIT ( ) SI_UNIT ( $, .RADIAN. ) );
#216 = CARTESIAN_POINT ( 'NONE',  ( -12.50000000000000000, 12.50000000000000000, 4.000000000000000000 ) ) ;
#217 = PRODUCT_DEFINITION ( 'UNKNOWN', '', #197, #97 ) ;
#218 = CARTESIAN_POINT ( 'NONE',  ( -12.50000000000000000, -12.50000000000000000, 4.000000000000000000 ) ) ;
#219 = DIRECTION ( 'NONE',  ( -0.0000000000000000000, -0.0000000000000000000, -1.000000000000000000 ) ) ;
#220 = CARTESIAN_POINT ( 'NONE',  ( -12.50000000000000000, 12.50000000000000000, 4.000000000000000000 ) ) ;
#221 = VERTEX_POINT ( 'NONE', #105 ) ;
#222 = ADVANCED_FACE ( 'NONE', ( #82 ), #104, .F. ) ;
#223 = CC_DESIGN_APPROVAL ( #34, ( #217 ) ) ;
#224 = APPLICATION_PROTOCOL_DEFINITION ( 'international standard', 'config_control_design', 1994, #162 ) ;
#225 = ORIENTED_EDGE ( 'NONE', *, *, #234, .T. ) ;
#226 = PERSON_AND_ORGANIZATION_ROLE ( 'design_supplier' ) ;
#227 = APPROVAL_STATUS ( 'not_yet_approved' ) ;
#228 =( LENGTH_UNIT ( ) NAMED_UNIT ( * ) SI_UNIT ( .MILLI., .METRE. ) );
#229 = CARTESIAN_POINT ( 'NONE',  ( -12.50000000000000000, 12.50000000000000000, 4.000000000000000000 ) ) ;
#230 = LINE ( 'NONE', #216, #195 ) ;
#231 = LINE ( 'NONE', #113, #55 ) ;
#232 = ORIENTED_EDGE ( 'NONE', *, *, #189, .F. ) ;
#233 = AXIS2_PLACEMENT_3D ( 'NONE', #147, #48, #183 ) ;
#234 = EDGE_CURVE ( 'NONE', #5, #18, #152, .T. ) ;
#235 = VECTOR ( 'NONE', #35, 1000.000000000000000 ) ;
#236 = ORIENTED_EDGE ( 'NONE', *, *, #72, .T. ) ;
#237 = CARTESIAN_POINT ( 'NONE',  ( 12.50000000000000000, -12.50000000000000000, 4.000000000000000000 ) ) ;
ENDSEC;
END-ISO-10303-21;
