ISO-10303-21;
HEADER;
FILE_DESCRIPTION (( 'STEP AP203' ),
    '1' );
FILE_NAME ('Web Model 68391.STEP',
    '2017-01-31T19:54:42',
    ( '' ),
    ( '' ),
    'SwSTEP 2.0',
    'SolidWorks 2016',
    '' );
FILE_SCHEMA (( 'CONFIG_CONTROL_DESIGN' ));
ENDSEC;

DATA;
#1 = CARTESIAN_POINT ( 'NONE',  ( 17.50000000000000400, -17.50000000000000400, 0.0000000000000000000 ) ) ;
#2 = CC_DESIGN_DATE_AND_TIME_ASSIGNMENT ( #96, #30, ( #42 ) ) ;
#3 = PLANE ( 'NONE',  #159 ) ;
#4 = DIRECTION ( 'NONE',  ( -9.912705577010325500E-017, 1.000000000000000000, 0.0000000000000000000 ) ) ;
#5 = LOCAL_TIME ( 14, 54, 42.00000000000000000, #33 ) ;
#6 = APPLICATION_PROTOCOL_DEFINITION ( 'international standard', 'config_control_design', 1994, #120 ) ;
#7 =( NAMED_UNIT ( * ) SI_UNIT ( $, .STERADIAN. ) SOLID_ANGLE_UNIT ( ) );
#8 = EDGE_CURVE ( 'NONE', #29, #111, #165, .T. ) ;
#9 = PERSON_AND_ORGANIZATION ( #160, #171 ) ;
#10 = ORIENTED_EDGE ( 'NONE', *, *, #62, .F. ) ;
#11 = CC_DESIGN_PERSON_AND_ORGANIZATION_ASSIGNMENT ( #35, #149, ( #42 ) ) ;
#12 = ORIENTED_EDGE ( 'NONE', *, *, #8, .F. ) ;
#13 = PERSON_AND_ORGANIZATION ( #160, #171 ) ;
#14 = VERTEX_POINT ( 'NONE', #178 ) ;
#15 = CARTESIAN_POINT ( 'NONE',  ( -17.50000000000000000, 17.49999999999999600, 3.000000000000000000 ) ) ;
#16 = CC_DESIGN_PERSON_AND_ORGANIZATION_ASSIGNMENT ( #9, #78, ( #31 ) ) ;
#17 = CARTESIAN_POINT ( 'NONE',  ( 17.49999999999999600, 17.50000000000000000, 3.000000000000000000 ) ) ;
#18 = AXIS2_PLACEMENT_3D ( 'NONE', #204, #4, #148 ) ;
#19 = VECTOR ( 'NONE', #21, 1000.000000000000000 ) ;
#20 = ORIENTED_EDGE ( 'NONE', *, *, #34, .F. ) ;
#21 = DIRECTION ( 'NONE',  ( 1.000000000000000000, 9.912705577010325500E-017, -0.0000000000000000000 ) ) ;
#22 = CARTESIAN_POINT ( 'NONE',  ( 17.49999999999999600, 17.50000000000000000, 0.0000000000000000000 ) ) ;
#23 = CALENDAR_DATE ( 2017, 31, 1 ) ;
#24 = EDGE_LOOP ( 'NONE', ( #82, #202, #20, #45 ) ) ;
#25 = CARTESIAN_POINT ( 'NONE',  ( -17.49999999999999600, -17.50000000000000700, 3.000000000000000000 ) ) ;
#26 = PLANE ( 'NONE',  #196 ) ;
#27 = APPLICATION_CONTEXT ( 'configuration controlled 3d designs of mechanical parts and assemblies' ) ;
#28 = FACE_OUTER_BOUND ( 'NONE', #233, .T. ) ;
#29 = VERTEX_POINT ( 'NONE', #235 ) ;
#30 = DATE_TIME_ROLE ( 'creation_date' ) ;
#31 = PRODUCT_DEFINITION_FORMATION_WITH_SPECIFIED_SOURCE ( 'ANY', '', #212, .NOT_KNOWN. ) ;
#32 = DIRECTION ( 'NONE',  ( 1.000000000000000000, 9.912705577010325500E-017, -0.0000000000000000000 ) ) ;
#33 = COORDINATED_UNIVERSAL_TIME_OFFSET ( 5, 0, .BEHIND. ) ;
#34 = EDGE_CURVE ( 'NONE', #107, #119, #56, .T. ) ;
#35 = PERSON_AND_ORGANIZATION ( #160, #171 ) ;
#36 = CC_DESIGN_DATE_AND_TIME_ASSIGNMENT ( #137, #191, ( #88 ) ) ;
#37 = APPROVAL_PERSON_ORGANIZATION ( #109, #231, #151 ) ;
#38 =( GEOMETRIC_REPRESENTATION_CONTEXT ( 3 ) GLOBAL_UNCERTAINTY_ASSIGNED_CONTEXT ( ( #46 ) ) GLOBAL_UNIT_ASSIGNED_CONTEXT ( ( #103, #122, #7 ) ) REPRESENTATION_CONTEXT ( 'NONE', 'WORKASPACE' ) );
#39 = ORIENTED_EDGE ( 'NONE', *, *, #224, .T. ) ;
#40 = VECTOR ( 'NONE', #183, 1000.000000000000000 ) ;
#41 = LINE ( 'NONE', #142, #223 ) ;
#42 = PRODUCT_DEFINITION ( 'UNKNOWN', '', #31, #229 ) ;
#43 = CARTESIAN_POINT ( 'NONE',  ( 17.49999999999999600, 17.50000000000000000, 3.000000000000000000 ) ) ;
#44 = CALENDAR_DATE ( 2017, 31, 1 ) ;
#45 = ORIENTED_EDGE ( 'NONE', *, *, #62, .T. ) ;
#46 = UNCERTAINTY_MEASURE_WITH_UNIT (LENGTH_MEASURE( 1.000000000000000100E-005 ), #103, 'distance_accuracy_value', 'NONE');
#47 = CARTESIAN_POINT ( 'NONE',  ( 17.49999999999999600, 17.50000000000000000, 3.000000000000000000 ) ) ;
#48 = CARTESIAN_POINT ( 'NONE',  ( -17.50000000000000000, 17.49999999999999600, 3.000000000000000000 ) ) ;
#49 = PLANE ( 'NONE',  #18 ) ;
#50 = ADVANCED_FACE ( 'NONE', ( #234 ), #176, .F. ) ;
#51 = CARTESIAN_POINT ( 'NONE',  ( -17.49999999999999600, -17.50000000000000700, 0.0000000000000000000 ) ) ;
#52 = PERSON_AND_ORGANIZATION ( #160, #171 ) ;
#53 = PERSON_AND_ORGANIZATION_ROLE ( 'classification_officer' ) ;
#54 = APPROVAL_ROLE ( '' ) ;
#55 = CC_DESIGN_SECURITY_CLASSIFICATION ( #88, ( #31 ) ) ;
#56 = LINE ( 'NONE', #17, #135 ) ;
#57 = EDGE_CURVE ( 'NONE', #119, #143, #94, .T. ) ;
#58 = CC_DESIGN_PERSON_AND_ORGANIZATION_ASSIGNMENT ( #95, #208, ( #31 ) ) ;
#59 = ORIENTED_EDGE ( 'NONE', *, *, #34, .T. ) ;
#60 = MANIFOLD_SOLID_BREP ( 'Extrude1', #206 ) ;
#61 = DIRECTION ( 'NONE',  ( -1.000000000000000000, -1.982541115402065100E-016, 0.0000000000000000000 ) ) ;
#62 = EDGE_CURVE ( 'NONE', #107, #93, #230, .T. ) ;
#63 = LOCAL_TIME ( 14, 54, 42.00000000000000000, #106 ) ;
#64 = DIRECTION ( 'NONE',  ( -0.0000000000000000000, -0.0000000000000000000, -1.000000000000000000 ) ) ;
#65 = CARTESIAN_POINT ( 'NONE',  ( 17.50000000000000400, -17.50000000000000400, 3.000000000000000000 ) ) ;
#66 = ORIENTED_EDGE ( 'NONE', *, *, #224, .F. ) ;
#67 = DIRECTION ( 'NONE',  ( -1.000000000000000000, 0.0000000000000000000, -0.0000000000000000000 ) ) ;
#68 = DIRECTION ( 'NONE',  ( 0.0000000000000000000, 0.0000000000000000000, -1.000000000000000000 ) ) ;
#69 = EDGE_CURVE ( 'NONE', #111, #14, #41, .T. ) ;
#70 = DIRECTION ( 'NONE',  ( -1.000000000000000000, 0.0000000000000000000, -0.0000000000000000000 ) ) ;
#71 = APPROVAL ( #190, 'UNSPECIFIED' ) ;
#72 = APPROVAL_DATE_TIME ( #131, #71 ) ;
#73 = CALENDAR_DATE ( 2017, 31, 1 ) ;
#74 = ORIENTED_EDGE ( 'NONE', *, *, #110, .T. ) ;
#75 = DIRECTION ( 'NONE',  ( -1.982541115402065100E-016, 1.000000000000000000, -0.0000000000000000000 ) ) ;
#76 = LINE ( 'NONE', #87, #127 ) ;
#77 = APPROVAL_STATUS ( 'not_yet_approved' ) ;
#78 = PERSON_AND_ORGANIZATION_ROLE ( 'design_supplier' ) ;
#79 = LINE ( 'NONE', #89, #158 ) ;
#80 = LINE ( 'NONE', #1, #19 ) ;
#81 = LOCAL_TIME ( 14, 54, 42.00000000000000000, #123 ) ;
#82 = ORIENTED_EDGE ( 'NONE', *, *, #83, .T. ) ;
#83 = EDGE_CURVE ( 'NONE', #93, #143, #194, .T. ) ;
#84 = DIRECTION ( 'NONE',  ( 1.000000000000000000, 9.912705577010325500E-017, -0.0000000000000000000 ) ) ;
#85 = FACE_OUTER_BOUND ( 'NONE', #24, .T. ) ;
#86 = EDGE_LOOP ( 'NONE', ( #108, #115, #74, #59 ) ) ;
#87 = CARTESIAN_POINT ( 'NONE',  ( -17.49999999999999600, -17.50000000000000700, 3.000000000000000000 ) ) ;
#88 = SECURITY_CLASSIFICATION ( '', '', #166 ) ;
#89 = CARTESIAN_POINT ( 'NONE',  ( 17.49999999999999600, 17.50000000000000000, 3.000000000000000000 ) ) ;
#90 = APPROVAL_DATE_TIME ( #101, #231 ) ;
#91 = CARTESIAN_POINT ( 'NONE',  ( 17.49999999999999600, 17.50000000000000000, 0.0000000000000000000 ) ) ;
#92 = DIRECTION ( 'NONE',  ( -1.982541115402065100E-016, 1.000000000000000000, -0.0000000000000000000 ) ) ;
#93 = VERTEX_POINT ( 'NONE', #91 ) ;
#94 = LINE ( 'NONE', #15, #175 ) ;
#95 = PERSON_AND_ORGANIZATION ( #160, #171 ) ;
#96 = DATE_AND_TIME ( #210, #163 ) ;
#97 = ADVANCED_FACE ( 'NONE', ( #213 ), #129, .F. ) ;
#98 = CARTESIAN_POINT ( 'NONE',  ( 17.49999999999999600, 17.50000000000000000, 0.0000000000000000000 ) ) ;
#99 = CC_DESIGN_APPROVAL ( #71, ( #88 ) ) ;
#100 = DIRECTION ( 'NONE',  ( 9.912705577010325500E-017, -1.000000000000000000, 0.0000000000000000000 ) ) ;
#101 = DATE_AND_TIME ( #73, #126 ) ;
#102 = ORIENTED_EDGE ( 'NONE', *, *, #57, .T. ) ;
#103 =( LENGTH_UNIT ( ) NAMED_UNIT ( * ) SI_UNIT ( .MILLI., .METRE. ) );
#104 = DIRECTION ( 'NONE',  ( -9.912705577010325500E-017, 1.000000000000000000, 0.0000000000000000000 ) ) ;
#105 = ORIENTED_EDGE ( 'NONE', *, *, #193, .T. ) ;
#106 = COORDINATED_UNIVERSAL_TIME_OFFSET ( 5, 0, .BEHIND. ) ;
#107 = VERTEX_POINT ( 'NONE', #207 ) ;
#108 = ORIENTED_EDGE ( 'NONE', *, *, #167, .T. ) ;
#109 = PERSON_AND_ORGANIZATION ( #160, #171 ) ;
#110 = EDGE_CURVE ( 'NONE', #111, #107, #79, .T. ) ;
#111 = VERTEX_POINT ( 'NONE', #186 ) ;
#112 = ADVANCED_FACE ( 'NONE', ( #85 ), #26, .F. ) ;
#113 = VECTOR ( 'NONE', #179, 1000.000000000000000 ) ;
#114 = ADVANCED_FACE ( 'NONE', ( #117 ), #49, .F. ) ;
#115 = ORIENTED_EDGE ( 'NONE', *, *, #8, .T. ) ;
#116 = APPLICATION_PROTOCOL_DEFINITION ( 'international standard', 'config_control_design', 1994, #27 ) ;
#117 = FACE_OUTER_BOUND ( 'NONE', #147, .T. ) ;
#118 = AXIS2_PLACEMENT_3D ( 'NONE', #43, #61, #200 ) ;
#119 = VERTEX_POINT ( 'NONE', #48 ) ;
#120 = APPLICATION_CONTEXT ( 'configuration controlled 3d designs of mechanical parts and assemblies' ) ;
#121 = CARTESIAN_POINT ( 'NONE',  ( -17.50000000000000000, 17.49999999999999600, 3.000000000000000000 ) ) ;
#122 =( NAMED_UNIT ( * ) PLANE_ANGLE_UNIT ( ) SI_UNIT ( $, .RADIAN. ) );
#123 = COORDINATED_UNIVERSAL_TIME_OFFSET ( 5, 0, .BEHIND. ) ;
#124 = SHAPE_DEFINITION_REPRESENTATION ( #182, #154 ) ;
#125 = APPROVAL ( #225, 'UNSPECIFIED' ) ;
#126 = LOCAL_TIME ( 14, 54, 42.00000000000000000, #216 ) ;
#127 = VECTOR ( 'NONE', #228, 1000.000000000000000 ) ;
#128 = EDGE_LOOP ( 'NONE', ( #105, #10, #237, #195 ) ) ;
#129 = PLANE ( 'NONE',  #153 ) ;
#130 = CARTESIAN_POINT ( 'NONE',  ( -17.50000000000000000, 17.49999999999999600, 0.0000000000000000000 ) ) ;
#131 = DATE_AND_TIME ( #205, #5 ) ;
#132 = LINE ( 'NONE', #220, #198 ) ;
#133 = ORIENTED_EDGE ( 'NONE', *, *, #69, .F. ) ;
#134 = DIRECTION ( 'NONE',  ( 0.0000000000000000000, 0.0000000000000000000, 1.000000000000000000 ) ) ;
#135 = VECTOR ( 'NONE', #157, 1000.000000000000000 ) ;
#136 = DIRECTION ( 'NONE',  ( 1.000000000000000000, 0.0000000000000000000, 0.0000000000000000000 ) ) ;
#137 = DATE_AND_TIME ( #44, #63 ) ;
#138 = VERTEX_POINT ( 'NONE', #51 ) ;
#139 = CC_DESIGN_APPROVAL ( #231, ( #42 ) ) ;
#140 = VECTOR ( 'NONE', #92, 1000.000000000000000 ) ;
#141 = ORIENTED_EDGE ( 'NONE', *, *, #167, .F. ) ;
#142 = CARTESIAN_POINT ( 'NONE',  ( 17.50000000000000400, -17.50000000000000400, 3.000000000000000000 ) ) ;
#143 = VERTEX_POINT ( 'NONE', #221 ) ;
#144 = DIRECTION ( 'NONE',  ( 0.0000000000000000000, 0.0000000000000000000, -1.000000000000000000 ) ) ;
#145 = DIRECTION ( 'NONE',  ( 1.000000000000000000, 1.982541115402065100E-016, 0.0000000000000000000 ) ) ;
#146 = PERSON_AND_ORGANIZATION ( #160, #171 ) ;
#147 = EDGE_LOOP ( 'NONE', ( #199, #133, #12, #39 ) ) ;
#148 = DIRECTION ( 'NONE',  ( -1.000000000000000000, -9.912705577010325500E-017, 0.0000000000000000000 ) ) ;
#149 = PERSON_AND_ORGANIZATION_ROLE ( 'creator' ) ;
#150 = ORIENTED_EDGE ( 'NONE', *, *, #184, .T. ) ;
#151 = APPROVAL_ROLE ( '' ) ;
#152 = FACE_OUTER_BOUND ( 'NONE', #217, .T. ) ;
#153 = AXIS2_PLACEMENT_3D ( 'NONE', #25, #68, #67 ) ;
#154 = ADVANCED_BREP_SHAPE_REPRESENTATION ( 'Web Model 68391', ( #60, #189 ), #38 ) ;
#155 = LINE ( 'NONE', #22, #140 ) ;
#156 = APPROVAL_DATE_TIME ( #174, #125 ) ;
#157 = DIRECTION ( 'NONE',  ( -1.000000000000000000, -1.982541115402065100E-016, 0.0000000000000000000 ) ) ;
#158 = VECTOR ( 'NONE', #75, 1000.000000000000000 ) ;
#159 = AXIS2_PLACEMENT_3D ( 'NONE', #162, #144, #70 ) ;
#160 = PERSON ( 'UNSPECIFIED', 'UNSPECIFIED', 'UNSPECIFIED', ('UNSPECIFIED'), ('UNSPECIFIED'), ('UNSPECIFIED') ) ;
#161 = PRODUCT_RELATED_PRODUCT_CATEGORY ( 'detail', '', ( #212 ) ) ;
#162 = CARTESIAN_POINT ( 'NONE',  ( -17.49999999999999600, -17.50000000000000700, 0.0000000000000000000 ) ) ;
#163 = LOCAL_TIME ( 14, 54, 42.00000000000000000, #187 ) ;
#164 = ORIENTED_EDGE ( 'NONE', *, *, #83, .F. ) ;
#165 = LINE ( 'NONE', #65, #214 ) ;
#166 = SECURITY_CLASSIFICATION_LEVEL ( 'unclassified' ) ;
#167 = EDGE_CURVE ( 'NONE', #119, #29, #132, .T. ) ;
#168 = MECHANICAL_CONTEXT ( 'NONE', #120, 'mechanical' ) ;
#169 = CC_DESIGN_APPROVAL ( #125, ( #31 ) ) ;
#170 = APPROVAL_ROLE ( '' ) ;
#171 = ORGANIZATION ( 'UNSPECIFIED', 'UNSPECIFIED', '' ) ;
#172 = VECTOR ( 'NONE', #218, 1000.000000000000000 ) ;
#173 = EDGE_CURVE ( 'NONE', #138, #14, #80, .T. ) ;
#174 = DATE_AND_TIME ( #23, #81 ) ;
#175 = VECTOR ( 'NONE', #197, 1000.000000000000000 ) ;
#176 = PLANE ( 'NONE',  #118 ) ;
#177 = ORIENTED_EDGE ( 'NONE', *, *, #173, .F. ) ;
#178 = CARTESIAN_POINT ( 'NONE',  ( 17.50000000000000400, -17.50000000000000400, 0.0000000000000000000 ) ) ;
#179 = DIRECTION ( 'NONE',  ( 9.912705577010325500E-017, -1.000000000000000000, 0.0000000000000000000 ) ) ;
#180 = CARTESIAN_POINT ( 'NONE',  ( 17.49999999999999600, 17.50000000000000000, 3.000000000000000000 ) ) ;
#181 = CC_DESIGN_PERSON_AND_ORGANIZATION_ASSIGNMENT ( #146, #53, ( #88 ) ) ;
#182 = PRODUCT_DEFINITION_SHAPE ( 'NONE', 'NONE',  #42 ) ;
#183 = DIRECTION ( 'NONE',  ( -1.000000000000000000, -1.982541115402065100E-016, 0.0000000000000000000 ) ) ;
#184 = EDGE_CURVE ( 'NONE', #143, #138, #226, .T. ) ;
#185 = DIRECTION ( 'NONE',  ( 1.982541115402065100E-016, -1.000000000000000000, 0.0000000000000000000 ) ) ;
#186 = CARTESIAN_POINT ( 'NONE',  ( 17.50000000000000400, -17.50000000000000400, 3.000000000000000000 ) ) ;
#187 = COORDINATED_UNIVERSAL_TIME_OFFSET ( 5, 0, .BEHIND. ) ;
#188 = CARTESIAN_POINT ( 'NONE',  ( 0.0000000000000000000, 0.0000000000000000000, 0.0000000000000000000 ) ) ;
#189 = AXIS2_PLACEMENT_3D ( 'NONE', #188, #134, #136 ) ;
#190 = APPROVAL_STATUS ( 'not_yet_approved' ) ;
#191 = DATE_TIME_ROLE ( 'classification_date' ) ;
#192 = PERSON_AND_ORGANIZATION_ROLE ( 'design_owner' ) ;
#193 = EDGE_CURVE ( 'NONE', #14, #93, #155, .T. ) ;
#194 = LINE ( 'NONE', #98, #40 ) ;
#195 = ORIENTED_EDGE ( 'NONE', *, *, #69, .T. ) ;
#196 = AXIS2_PLACEMENT_3D ( 'NONE', #180, #185, #145 ) ;
#197 = DIRECTION ( 'NONE',  ( -0.0000000000000000000, -0.0000000000000000000, -1.000000000000000000 ) ) ;
#198 = VECTOR ( 'NONE', #100, 1000.000000000000000 ) ;
#199 = ORIENTED_EDGE ( 'NONE', *, *, #173, .T. ) ;
#200 = DIRECTION ( 'NONE',  ( 1.982541115402065100E-016, -1.000000000000000000, 0.0000000000000000000 ) ) ;
#201 = CC_DESIGN_PERSON_AND_ORGANIZATION_ASSIGNMENT ( #236, #192, ( #212 ) ) ;
#202 = ORIENTED_EDGE ( 'NONE', *, *, #57, .F. ) ;
#203 = ADVANCED_FACE ( 'NONE', ( #28 ), #3, .T. ) ;
#204 = CARTESIAN_POINT ( 'NONE',  ( 17.50000000000000400, -17.50000000000000400, 3.000000000000000000 ) ) ;
#205 = CALENDAR_DATE ( 2017, 31, 1 ) ;
#206 = CLOSED_SHELL ( 'NONE', ( #219, #114, #50, #112, #97, #203 ) ) ;
#207 = CARTESIAN_POINT ( 'NONE',  ( 17.49999999999999600, 17.50000000000000000, 3.000000000000000000 ) ) ;
#208 = PERSON_AND_ORGANIZATION_ROLE ( 'creator' ) ;
#209 = PLANE ( 'NONE',  #215 ) ;
#210 = CALENDAR_DATE ( 2017, 31, 1 ) ;
#211 = ORIENTED_EDGE ( 'NONE', *, *, #193, .F. ) ;
#212 = PRODUCT ( 'Web Model 68391', 'Web Model 68391', '', ( #168 ) ) ;
#213 = FACE_OUTER_BOUND ( 'NONE', #86, .T. ) ;
#214 = VECTOR ( 'NONE', #84, 1000.000000000000000 ) ;
#215 = AXIS2_PLACEMENT_3D ( 'NONE', #121, #32, #104 ) ;
#216 = COORDINATED_UNIVERSAL_TIME_OFFSET ( 5, 0, .BEHIND. ) ;
#217 = EDGE_LOOP ( 'NONE', ( #150, #66, #141, #102 ) ) ;
#218 = DIRECTION ( 'NONE',  ( -0.0000000000000000000, -0.0000000000000000000, -1.000000000000000000 ) ) ;
#219 = ADVANCED_FACE ( 'NONE', ( #152 ), #209, .F. ) ;
#220 = CARTESIAN_POINT ( 'NONE',  ( -17.50000000000000000, 17.49999999999999600, 3.000000000000000000 ) ) ;
#221 = CARTESIAN_POINT ( 'NONE',  ( -17.50000000000000000, 17.49999999999999600, 0.0000000000000000000 ) ) ;
#222 = APPROVAL_PERSON_ORGANIZATION ( #13, #71, #170 ) ;
#223 = VECTOR ( 'NONE', #64, 1000.000000000000000 ) ;
#224 = EDGE_CURVE ( 'NONE', #29, #138, #76, .T. ) ;
#225 = APPROVAL_STATUS ( 'not_yet_approved' ) ;
#226 = LINE ( 'NONE', #130, #113 ) ;
#227 = ORIENTED_EDGE ( 'NONE', *, *, #184, .F. ) ;
#228 = DIRECTION ( 'NONE',  ( -0.0000000000000000000, -0.0000000000000000000, -1.000000000000000000 ) ) ;
#229 = DESIGN_CONTEXT ( 'detailed design', #27, 'design' ) ;
#230 = LINE ( 'NONE', #47, #172 ) ;
#231 = APPROVAL ( #77, 'UNSPECIFIED' ) ;
#232 = APPROVAL_PERSON_ORGANIZATION ( #52, #125, #54 ) ;
#233 = EDGE_LOOP ( 'NONE', ( #227, #164, #211, #177 ) ) ;
#234 = FACE_OUTER_BOUND ( 'NONE', #128, .T. ) ;
#235 = CARTESIAN_POINT ( 'NONE',  ( -17.49999999999999600, -17.50000000000000700, 3.000000000000000000 ) ) ;
#236 = PERSON_AND_ORGANIZATION ( #160, #171 ) ;
#237 = ORIENTED_EDGE ( 'NONE', *, *, #110, .F. ) ;
ENDSEC;
END-ISO-10303-21;
