ISO-10303-21;
HEADER;
FILE_DESCRIPTION (( 'STEP AP203' ),
    '1' );
FILE_NAME ('Web Model 37689_37715.step',
    '2018-08-03T18:46:04',
    ( '' ),
    ( '' ),
    'SwSTEP 2.0',
    'SolidWorks 2016',
    '' );
FILE_SCHEMA (( 'CONFIG_CONTROL_DESIGN' ));
ENDSEC;

DATA;
#1 = ADVANCED_FACE ( 'NONE', ( #7 ), #118, .F. ) ;
#2 = CC_DESIGN_DATE_AND_TIME_ASSIGNMENT ( #146, #96, ( #18 ) ) ;
#3 = UNCERTAINTY_MEASURE_WITH_UNIT (LENGTH_MEASURE( 1.000000000000000100E-005 ), #125, 'distance_accuracy_value', 'NONE');
#4 = CALENDAR_DATE ( 2018, 3, 8 ) ;
#5 = DIRECTION ( 'NONE',  ( -0.0000000000000000000, -0.0000000000000000000, -1.000000000000000000 ) ) ;
#6 = AXIS2_PLACEMENT_3D ( 'NONE', #55, #17, #170 ) ;
#7 = FACE_OUTER_BOUND ( 'NONE', #102, .T. ) ;
#8 = DIRECTION ( 'NONE',  ( 1.000000000000000000, 0.0000000000000000000, 0.0000000000000000000 ) ) ;
#9 = CARTESIAN_POINT ( 'NONE',  ( -12.69999999999999900, 0.0000000000000000000, 3.174999999999999800 ) ) ;
#10 = APPLICATION_PROTOCOL_DEFINITION ( 'international standard', 'config_control_design', 1994, #33 ) ;
#11 = LOCAL_TIME ( 14, 46, 4.000000000000000000, #65 ) ;
#12 = AXIS2_PLACEMENT_3D ( 'NONE', #29, #80, #57 ) ;
#13 = CC_DESIGN_DATE_AND_TIME_ASSIGNMENT ( #87, #100, ( #167 ) ) ;
#14 = ORGANIZATION ( 'UNSPECIFIED', 'UNSPECIFIED', '' ) ;
#15 = EDGE_CURVE ( 'NONE', #161, #49, #30, .T. ) ;
#16 = CALENDAR_DATE ( 2018, 3, 8 ) ;
#17 = DIRECTION ( 'NONE',  ( -0.0000000000000000000, -0.0000000000000000000, -1.000000000000000000 ) ) ;
#18 = PRODUCT_DEFINITION ( 'UNKNOWN', '', #78, #90 ) ;
#19 = PERSON_AND_ORGANIZATION ( #24, #14 ) ;
#20 = CYLINDRICAL_SURFACE ( 'NONE', #6, 12.69999999999999900 ) ;
#21 = COORDINATED_UNIVERSAL_TIME_OFFSET ( 5, 0, .BEHIND. ) ;
#22 =( NAMED_UNIT ( * ) PLANE_ANGLE_UNIT ( ) SI_UNIT ( $, .RADIAN. ) );
#23 = APPROVAL_STATUS ( 'not_yet_approved' ) ;
#24 = PERSON ( 'UNSPECIFIED', 'UNSPECIFIED', 'UNSPECIFIED', ('UNSPECIFIED'), ('UNSPECIFIED'), ('UNSPECIFIED') ) ;
#25 = APPROVAL_DATE_TIME ( #64, #119 ) ;
#26 = APPROVAL ( #23, 'UNSPECIFIED' ) ;
#27 =( GEOMETRIC_REPRESENTATION_CONTEXT ( 3 ) GLOBAL_UNCERTAINTY_ASSIGNED_CONTEXT ( ( #3 ) ) GLOBAL_UNIT_ASSIGNED_CONTEXT ( ( #125, #22, #86 ) ) REPRESENTATION_CONTEXT ( 'NONE', 'WORKASPACE' ) );
#28 = PRODUCT_RELATED_PRODUCT_CATEGORY ( 'detail', '', ( #157 ) ) ;
#29 = CARTESIAN_POINT ( 'NONE',  ( 0.0000000000000000000, 0.0000000000000000000, -3.174999999999999800 ) ) ;
#30 = LINE ( 'NONE', #54, #144 ) ;
#31 = EDGE_CURVE ( 'NONE', #49, #134, #163, .T. ) ;
#32 = DIRECTION ( 'NONE',  ( 1.000000000000000000, 0.0000000000000000000, 0.0000000000000000000 ) ) ;
#33 = APPLICATION_CONTEXT ( 'configuration controlled 3d designs of mechanical parts and assemblies' ) ;
#34 = EDGE_LOOP ( 'NONE', ( #113, #121 ) ) ;
#35 = PERSON_AND_ORGANIZATION_ROLE ( 'classification_officer' ) ;
#36 = AXIS2_PLACEMENT_3D ( 'NONE', #164, #142, #41 ) ;
#37 = ORIENTED_EDGE ( 'NONE', *, *, #45, .F. ) ;
#38 = AXIS2_PLACEMENT_3D ( 'NONE', #151, #137, #73 ) ;
#39 = AXIS2_PLACEMENT_3D ( 'NONE', #120, #84, #8 ) ;
#40 = VERTEX_POINT ( 'NONE', #135 ) ;
#41 = DIRECTION ( 'NONE',  ( 1.000000000000000000, 0.0000000000000000000, -0.0000000000000000000 ) ) ;
#42 = AXIS2_PLACEMENT_3D ( 'NONE', #111, #43, #32 ) ;
#43 = DIRECTION ( 'NONE',  ( 0.0000000000000000000, 0.0000000000000000000, 1.000000000000000000 ) ) ;
#44 = PERSON_AND_ORGANIZATION_ROLE ( 'creator' ) ;
#45 = EDGE_CURVE ( 'NONE', #161, #40, #129, .T. ) ;
#46 = APPROVAL_PERSON_ORGANIZATION ( #53, #26, #77 ) ;
#47 = CC_DESIGN_APPROVAL ( #26, ( #167 ) ) ;
#48 = ORIENTED_EDGE ( 'NONE', *, *, #85, .F. ) ;
#49 = VERTEX_POINT ( 'NONE', #82 ) ;
#50 = CC_DESIGN_PERSON_AND_ORGANIZATION_ASSIGNMENT ( #107, #35, ( #167 ) ) ;
#51 = CARTESIAN_POINT ( 'NONE',  ( 0.0000000000000000000, 0.0000000000000000000, 3.174999999999999800 ) ) ;
#52 = SHAPE_DEFINITION_REPRESENTATION ( #108, #165 ) ;
#53 = PERSON_AND_ORGANIZATION ( #24, #14 ) ;
#54 = CARTESIAN_POINT ( 'NONE',  ( -12.69999999999999900, 0.0000000000000000000, 3.174999999999999800 ) ) ;
#55 = CARTESIAN_POINT ( 'NONE',  ( 0.0000000000000000000, 0.0000000000000000000, 3.174999999999999800 ) ) ;
#56 = ORIENTED_EDGE ( 'NONE', *, *, #160, .F. ) ;
#57 = DIRECTION ( 'NONE',  ( 1.000000000000000000, 0.0000000000000000000, -0.0000000000000000000 ) ) ;
#58 = APPLICATION_PROTOCOL_DEFINITION ( 'international standard', 'config_control_design', 1994, #97 ) ;
#59 = CARTESIAN_POINT ( 'NONE',  ( 0.0000000000000000000, 0.0000000000000000000, -3.174999999999999800 ) ) ;
#60 = APPROVAL_ROLE ( '' ) ;
#61 = ORIENTED_EDGE ( 'NONE', *, *, #145, .F. ) ;
#62 = PERSON_AND_ORGANIZATION_ROLE ( 'design_owner' ) ;
#63 = MECHANICAL_CONTEXT ( 'NONE', #97, 'mechanical' ) ;
#64 = DATE_AND_TIME ( #114, #128 ) ;
#65 = COORDINATED_UNIVERSAL_TIME_OFFSET ( 5, 0, .BEHIND. ) ;
#66 = CIRCLE ( 'NONE', #42, 12.69999999999999900 ) ;
#67 = CC_DESIGN_PERSON_AND_ORGANIZATION_ASSIGNMENT ( #116, #110, ( #78 ) ) ;
#68 = ADVANCED_FACE ( 'NONE', ( #72 ), #132, .T. ) ;
#69 = ORIENTED_EDGE ( 'NONE', *, *, #15, .T. ) ;
#70 = DIRECTION ( 'NONE',  ( 1.000000000000000000, 0.0000000000000000000, 0.0000000000000000000 ) ) ;
#71 = COORDINATED_UNIVERSAL_TIME_OFFSET ( 5, 0, .BEHIND. ) ;
#72 = FACE_OUTER_BOUND ( 'NONE', #34, .T. ) ;
#73 = DIRECTION ( 'NONE',  ( 1.000000000000000000, 0.0000000000000000000, 0.0000000000000000000 ) ) ;
#74 = SECURITY_CLASSIFICATION_LEVEL ( 'unclassified' ) ;
#75 = APPROVAL_DATE_TIME ( #159, #26 ) ;
#76 = APPROVAL_STATUS ( 'not_yet_approved' ) ;
#77 = APPROVAL_ROLE ( '' ) ;
#78 = PRODUCT_DEFINITION_FORMATION_WITH_SPECIFIED_SOURCE ( 'ANY', '', #157, .NOT_KNOWN. ) ;
#79 = CC_DESIGN_APPROVAL ( #158, ( #18 ) ) ;
#80 = DIRECTION ( 'NONE',  ( 0.0000000000000000000, 0.0000000000000000000, 1.000000000000000000 ) ) ;
#81 = LINE ( 'NONE', #123, #173 ) ;
#82 = CARTESIAN_POINT ( 'NONE',  ( -12.69999999999999900, 0.0000000000000000000, -3.174999999999999800 ) ) ;
#83 = CC_DESIGN_PERSON_AND_ORGANIZATION_ASSIGNMENT ( #19, #171, ( #78 ) ) ;
#84 = DIRECTION ( 'NONE',  ( 0.0000000000000000000, 0.0000000000000000000, 1.000000000000000000 ) ) ;
#85 = EDGE_CURVE ( 'NONE', #40, #134, #81, .T. ) ;
#86 =( NAMED_UNIT ( * ) SI_UNIT ( $, .STERADIAN. ) SOLID_ANGLE_UNIT ( ) );
#87 = DATE_AND_TIME ( #89, #153 ) ;
#88 = DIRECTION ( 'NONE',  ( 0.0000000000000000000, 0.0000000000000000000, 1.000000000000000000 ) ) ;
#89 = CALENDAR_DATE ( 2018, 3, 8 ) ;
#90 = DESIGN_CONTEXT ( 'detailed design', #33, 'design' ) ;
#91 = CIRCLE ( 'NONE', #143, 12.69999999999999900 ) ;
#92 = ORIENTED_EDGE ( 'NONE', *, *, #85, .T. ) ;
#93 = CALENDAR_DATE ( 2018, 3, 8 ) ;
#94 = COORDINATED_UNIVERSAL_TIME_OFFSET ( 5, 0, .BEHIND. ) ;
#95 = EDGE_LOOP ( 'NONE', ( #61, #92, #105, #124 ) ) ;
#96 = DATE_TIME_ROLE ( 'creation_date' ) ;
#97 = APPLICATION_CONTEXT ( 'configuration controlled 3d designs of mechanical parts and assemblies' ) ;
#98 = APPROVAL_ROLE ( '' ) ;
#99 = FACE_OUTER_BOUND ( 'NONE', #95, .T. ) ;
#100 = DATE_TIME_ROLE ( 'classification_date' ) ;
#101 = APPROVAL_PERSON_ORGANIZATION ( #133, #158, #60 ) ;
#102 = EDGE_LOOP ( 'NONE', ( #149, #56 ) ) ;
#103 = ADVANCED_FACE ( 'NONE', ( #99 ), #20, .T. ) ;
#104 = APPROVAL_PERSON_ORGANIZATION ( #155, #119, #98 ) ;
#105 = ORIENTED_EDGE ( 'NONE', *, *, #160, .T. ) ;
#106 = CC_DESIGN_PERSON_AND_ORGANIZATION_ASSIGNMENT ( #172, #44, ( #18 ) ) ;
#107 = PERSON_AND_ORGANIZATION ( #24, #14 ) ;
#108 = PRODUCT_DEFINITION_SHAPE ( 'NONE', 'NONE',  #18 ) ;
#109 = DIRECTION ( 'NONE',  ( -0.0000000000000000000, -0.0000000000000000000, -1.000000000000000000 ) ) ;
#110 = PERSON_AND_ORGANIZATION_ROLE ( 'creator' ) ;
#111 = CARTESIAN_POINT ( 'NONE',  ( 0.0000000000000000000, 0.0000000000000000000, 3.174999999999999800 ) ) ;
#112 = CC_DESIGN_APPROVAL ( #119, ( #78 ) ) ;
#113 = ORIENTED_EDGE ( 'NONE', *, *, #45, .T. ) ;
#114 = CALENDAR_DATE ( 2018, 3, 8 ) ;
#115 = ORIENTED_EDGE ( 'NONE', *, *, #31, .T. ) ;
#116 = PERSON_AND_ORGANIZATION ( #24, #14 ) ;
#117 = LOCAL_TIME ( 14, 46, 4.000000000000000000, #21 ) ;
#118 = PLANE ( 'NONE',  #12 ) ;
#119 = APPROVAL ( #76, 'UNSPECIFIED' ) ;
#120 = CARTESIAN_POINT ( 'NONE',  ( 0.0000000000000000000, 0.0000000000000000000, -3.174999999999999800 ) ) ;
#121 = ORIENTED_EDGE ( 'NONE', *, *, #145, .T. ) ;
#122 = CARTESIAN_POINT ( 'NONE',  ( 0.0000000000000000000, 0.0000000000000000000, 3.174999999999999800 ) ) ;
#123 = CARTESIAN_POINT ( 'NONE',  ( 12.69999999999999900, 1.555301434917138400E-015, 3.174999999999999800 ) ) ;
#124 = ORIENTED_EDGE ( 'NONE', *, *, #15, .F. ) ;
#125 =( LENGTH_UNIT ( ) NAMED_UNIT ( * ) SI_UNIT ( .MILLI., .METRE. ) );
#126 = LOCAL_TIME ( 14, 46, 4.000000000000000000, #94 ) ;
#127 = CC_DESIGN_SECURITY_CLASSIFICATION ( #167, ( #78 ) ) ;
#128 = LOCAL_TIME ( 14, 46, 4.000000000000000000, #71 ) ;
#129 = CIRCLE ( 'NONE', #136, 12.69999999999999900 ) ;
#130 = MANIFOLD_SOLID_BREP ( 'Boss-Extrude1', #139 ) ;
#131 = CYLINDRICAL_SURFACE ( 'NONE', #154, 12.69999999999999900 ) ;
#132 = PLANE ( 'NONE',  #36 ) ;
#133 = PERSON_AND_ORGANIZATION ( #24, #14 ) ;
#134 = VERTEX_POINT ( 'NONE', #169 ) ;
#135 = CARTESIAN_POINT ( 'NONE',  ( 12.69999999999999900, 1.555301434917138400E-015, 3.174999999999999800 ) ) ;
#136 = AXIS2_PLACEMENT_3D ( 'NONE', #51, #148, #70 ) ;
#137 = DIRECTION ( 'NONE',  ( 0.0000000000000000000, 0.0000000000000000000, 1.000000000000000000 ) ) ;
#138 = DIRECTION ( 'NONE',  ( -0.0000000000000000000, -0.0000000000000000000, -1.000000000000000000 ) ) ;
#139 = CLOSED_SHELL ( 'NONE', ( #103, #156, #68, #1 ) ) ;
#140 = APPROVAL_STATUS ( 'not_yet_approved' ) ;
#141 = DIRECTION ( 'NONE',  ( -1.000000000000000000, 0.0000000000000000000, 0.0000000000000000000 ) ) ;
#142 = DIRECTION ( 'NONE',  ( 0.0000000000000000000, 0.0000000000000000000, 1.000000000000000000 ) ) ;
#143 = AXIS2_PLACEMENT_3D ( 'NONE', #59, #88, #168 ) ;
#144 = VECTOR ( 'NONE', #5, 1000.000000000000000 ) ;
#145 = EDGE_CURVE ( 'NONE', #40, #161, #66, .T. ) ;
#146 = DATE_AND_TIME ( #4, #11 ) ;
#147 = DATE_AND_TIME ( #93, #117 ) ;
#148 = DIRECTION ( 'NONE',  ( 0.0000000000000000000, 0.0000000000000000000, 1.000000000000000000 ) ) ;
#149 = ORIENTED_EDGE ( 'NONE', *, *, #31, .F. ) ;
#150 = PERSON_AND_ORGANIZATION ( #24, #14 ) ;
#151 = CARTESIAN_POINT ( 'NONE',  ( 0.0000000000000000000, 0.0000000000000000000, 0.0000000000000000000 ) ) ;
#152 = EDGE_LOOP ( 'NONE', ( #48, #37, #69, #115 ) ) ;
#153 = LOCAL_TIME ( 14, 46, 4.000000000000000000, #166 ) ;
#154 = AXIS2_PLACEMENT_3D ( 'NONE', #122, #138, #141 ) ;
#155 = PERSON_AND_ORGANIZATION ( #24, #14 ) ;
#156 = ADVANCED_FACE ( 'NONE', ( #174 ), #131, .T. ) ;
#157 = PRODUCT ( 'Web Model 37689_37715', 'Web Model 37689_37715', '', ( #63 ) ) ;
#158 = APPROVAL ( #140, 'UNSPECIFIED' ) ;
#159 = DATE_AND_TIME ( #16, #126 ) ;
#160 = EDGE_CURVE ( 'NONE', #134, #49, #91, .T. ) ;
#161 = VERTEX_POINT ( 'NONE', #9 ) ;
#162 = APPROVAL_DATE_TIME ( #147, #158 ) ;
#163 = CIRCLE ( 'NONE', #39, 12.69999999999999900 ) ;
#164 = CARTESIAN_POINT ( 'NONE',  ( 0.0000000000000000000, 0.0000000000000000000, 3.174999999999999800 ) ) ;
#165 = ADVANCED_BREP_SHAPE_REPRESENTATION ( 'Web Model 37689_37715', ( #130, #38 ), #27 ) ;
#166 = COORDINATED_UNIVERSAL_TIME_OFFSET ( 5, 0, .BEHIND. ) ;
#167 = SECURITY_CLASSIFICATION ( '', '', #74 ) ;
#168 = DIRECTION ( 'NONE',  ( 1.000000000000000000, 0.0000000000000000000, 0.0000000000000000000 ) ) ;
#169 = CARTESIAN_POINT ( 'NONE',  ( 12.69999999999999900, 1.555301434917138400E-015, -3.174999999999999800 ) ) ;
#170 = DIRECTION ( 'NONE',  ( -1.000000000000000000, 0.0000000000000000000, 0.0000000000000000000 ) ) ;
#171 = PERSON_AND_ORGANIZATION_ROLE ( 'design_supplier' ) ;
#172 = PERSON_AND_ORGANIZATION ( #24, #14 ) ;
#173 = VECTOR ( 'NONE', #109, 1000.000000000000000 ) ;
#174 = FACE_OUTER_BOUND ( 'NONE', #152, .T. ) ;
#175 = CC_DESIGN_PERSON_AND_ORGANIZATION_ASSIGNMENT ( #150, #62, ( #157 ) ) ;
ENDSEC;
END-ISO-10303-21;
