ISO-10303-21;
HEADER;
FILE_DESCRIPTION (( 'STEP AP203' ),
    '1' );
FILE_NAME ('Web Model 32947_45636.step',
    '2019-01-17T14:36:52',
    ( '' ),
    ( '' ),
    'SwSTEP 2.0',
    'SolidWorks 2016',
    '' );
FILE_SCHEMA (( 'CONFIG_CONTROL_DESIGN' ));
ENDSEC;

DATA;
#1 = PERSON_AND_ORGANIZATION ( #14, #110 ) ;
#2 = PRODUCT_DEFINITION_SHAPE ( 'NONE', 'NONE',  #39 ) ;
#3 =( GEOMETRIC_REPRESENTATION_CONTEXT ( 3 ) GLOBAL_UNCERTAINTY_ASSIGNED_CONTEXT ( ( #154 ) ) GLOBAL_UNIT_ASSIGNED_CONTEXT ( ( #99, #24, #114 ) ) REPRESENTATION_CONTEXT ( 'NONE', 'WORKASPACE' ) );
#4 = ORIENTED_EDGE ( 'NONE', *, *, #171, .F. ) ;
#5 = DIRECTION ( 'NONE',  ( 1.000000000000000000, 0.0000000000000000000, 0.0000000000000000000 ) ) ;
#6 = CARTESIAN_POINT ( 'NONE',  ( 0.0000000000000000000, 0.0000000000000000000, 1.000000000000000000 ) ) ;
#7 = PERSON_AND_ORGANIZATION ( #14, #110 ) ;
#8 = MANIFOLD_SOLID_BREP ( 'Extrude1', #40 ) ;
#9 = ORIENTED_EDGE ( 'NONE', *, *, #137, .F. ) ;
#10 = ORIENTED_EDGE ( 'NONE', *, *, #119, .F. ) ;
#11 = CALENDAR_DATE ( 2019, 17, 1 ) ;
#12 = CC_DESIGN_PERSON_AND_ORGANIZATION_ASSIGNMENT ( #7, #117, ( #136 ) ) ;
#13 = APPROVAL_ROLE ( '' ) ;
#14 = PERSON ( 'UNSPECIFIED', 'UNSPECIFIED', 'UNSPECIFIED', ('UNSPECIFIED'), ('UNSPECIFIED'), ('UNSPECIFIED') ) ;
#15 = PERSON_AND_ORGANIZATION_ROLE ( 'creator' ) ;
#16 = EDGE_LOOP ( 'NONE', ( #9, #72 ) ) ;
#17 = CALENDAR_DATE ( 2019, 17, 1 ) ;
#18 = AXIS2_PLACEMENT_3D ( 'NONE', #140, #67, #169 ) ;
#19 = DIRECTION ( 'NONE',  ( 0.0000000000000000000, 0.0000000000000000000, 1.000000000000000000 ) ) ;
#20 = DIRECTION ( 'NONE',  ( 0.0000000000000000000, 0.0000000000000000000, 1.000000000000000000 ) ) ;
#21 = ADVANCED_FACE ( 'NONE', ( #85 ), #162, .F. ) ;
#22 = CARTESIAN_POINT ( 'NONE',  ( 0.0000000000000000000, 0.0000000000000000000, 0.0000000000000000000 ) ) ;
#23 = LOCAL_TIME ( 9, 36, 52.00000000000000000, #104 ) ;
#24 =( NAMED_UNIT ( * ) PLANE_ANGLE_UNIT ( ) SI_UNIT ( $, .RADIAN. ) );
#25 = CALENDAR_DATE ( 2019, 17, 1 ) ;
#26 = DATE_TIME_ROLE ( 'creation_date' ) ;
#27 = APPROVAL_STATUS ( 'not_yet_approved' ) ;
#28 = COORDINATED_UNIVERSAL_TIME_OFFSET ( 5, 0, .BEHIND. ) ;
#29 = LINE ( 'NONE', #34, #75 ) ;
#30 = CC_DESIGN_PERSON_AND_ORGANIZATION_ASSIGNMENT ( #146, #68, ( #130 ) ) ;
#31 = VECTOR ( 'NONE', #88, 1000.000000000000000 ) ;
#32 = CALENDAR_DATE ( 2019, 17, 1 ) ;
#33 = EDGE_LOOP ( 'NONE', ( #127, #105 ) ) ;
#34 = CARTESIAN_POINT ( 'NONE',  ( 5.000000000000000000, 6.123233995736766300E-016, 1.000000000000000000 ) ) ;
#35 = CYLINDRICAL_SURFACE ( 'NONE', #166, 5.000000000000000000 ) ;
#36 = DIRECTION ( 'NONE',  ( 1.000000000000000000, 0.0000000000000000000, 0.0000000000000000000 ) ) ;
#37 = AXIS2_PLACEMENT_3D ( 'NONE', #112, #19, #101 ) ;
#38 = DATE_AND_TIME ( #25, #84 ) ;
#39 = PRODUCT_DEFINITION ( 'UNKNOWN', '', #136, #97 ) ;
#40 = CLOSED_SHELL ( 'NONE', ( #113, #89, #102, #21 ) ) ;
#41 = AXIS2_PLACEMENT_3D ( 'NONE', #142, #90, #80 ) ;
#42 = CC_DESIGN_APPROVAL ( #120, ( #53 ) ) ;
#43 = COORDINATED_UNIVERSAL_TIME_OFFSET ( 5, 0, .BEHIND. ) ;
#44 = PRODUCT_RELATED_PRODUCT_CATEGORY ( 'detail', '', ( #130 ) ) ;
#45 = CALENDAR_DATE ( 2019, 17, 1 ) ;
#46 = ORIENTED_EDGE ( 'NONE', *, *, #143, .T. ) ;
#47 = CARTESIAN_POINT ( 'NONE',  ( 0.0000000000000000000, 0.0000000000000000000, 1.000000000000000000 ) ) ;
#48 = CC_DESIGN_APPROVAL ( #65, ( #39 ) ) ;
#49 = CARTESIAN_POINT ( 'NONE',  ( -5.000000000000000000, 0.0000000000000000000, 1.000000000000000000 ) ) ;
#50 = DATE_AND_TIME ( #45, #23 ) ;
#51 = ORIENTED_EDGE ( 'NONE', *, *, #93, .F. ) ;
#52 = APPLICATION_CONTEXT ( 'configuration controlled 3d designs of mechanical parts and assemblies' ) ;
#53 = SECURITY_CLASSIFICATION ( '', '', #173 ) ;
#54 = APPROVAL_DATE_TIME ( #50, #147 ) ;
#55 = APPROVAL_PERSON_ORGANIZATION ( #66, #65, #13 ) ;
#56 = APPROVAL_STATUS ( 'not_yet_approved' ) ;
#57 = DATE_TIME_ROLE ( 'classification_date' ) ;
#58 = CARTESIAN_POINT ( 'NONE',  ( 5.000000000000000000, 6.123233995736766300E-016, 1.000000000000000000 ) ) ;
#59 = LOCAL_TIME ( 9, 36, 52.00000000000000000, #98 ) ;
#60 = CC_DESIGN_APPROVAL ( #147, ( #136 ) ) ;
#61 = PLANE ( 'NONE',  #128 ) ;
#62 = DIRECTION ( 'NONE',  ( 0.0000000000000000000, 0.0000000000000000000, 1.000000000000000000 ) ) ;
#63 = AXIS2_PLACEMENT_3D ( 'NONE', #155, #62, #126 ) ;
#64 = CARTESIAN_POINT ( 'NONE',  ( 0.0000000000000000000, 0.0000000000000000000, 1.000000000000000000 ) ) ;
#65 = APPROVAL ( #27, 'UNSPECIFIED' ) ;
#66 = PERSON_AND_ORGANIZATION ( #14, #110 ) ;
#67 = DIRECTION ( 'NONE',  ( 0.0000000000000000000, 0.0000000000000000000, 1.000000000000000000 ) ) ;
#68 = PERSON_AND_ORGANIZATION_ROLE ( 'design_owner' ) ;
#69 = LOCAL_TIME ( 9, 36, 52.00000000000000000, #106 ) ;
#70 = EDGE_CURVE ( 'NONE', #87, #76, #29, .T. ) ;
#71 = APPROVAL_ROLE ( '' ) ;
#72 = ORIENTED_EDGE ( 'NONE', *, *, #143, .F. ) ;
#73 = APPROVAL_PERSON_ORGANIZATION ( #79, #120, #132 ) ;
#74 = AXIS2_PLACEMENT_3D ( 'NONE', #64, #139, #78 ) ;
#75 = VECTOR ( 'NONE', #100, 1000.000000000000000 ) ;
#76 = VERTEX_POINT ( 'NONE', #109 ) ;
#77 = AXIS2_PLACEMENT_3D ( 'NONE', #6, #164, #5 ) ;
#78 = DIRECTION ( 'NONE',  ( -1.000000000000000000, 0.0000000000000000000, 0.0000000000000000000 ) ) ;
#79 = PERSON_AND_ORGANIZATION ( #14, #110 ) ;
#80 = DIRECTION ( 'NONE',  ( 1.000000000000000000, 0.0000000000000000000, -0.0000000000000000000 ) ) ;
#81 = ORIENTED_EDGE ( 'NONE', *, *, #70, .T. ) ;
#82 = CC_DESIGN_SECURITY_CLASSIFICATION ( #53, ( #136 ) ) ;
#83 = APPLICATION_PROTOCOL_DEFINITION ( 'international standard', 'config_control_design', 1994, #170 ) ;
#84 = LOCAL_TIME ( 9, 36, 52.00000000000000000, #43 ) ;
#85 = FACE_OUTER_BOUND ( 'NONE', #16, .T. ) ;
#86 = ADVANCED_BREP_SHAPE_REPRESENTATION ( 'Web Model 32947_45636', ( #8, #18 ), #3 ) ;
#87 = VERTEX_POINT ( 'NONE', #58 ) ;
#88 = DIRECTION ( 'NONE',  ( -0.0000000000000000000, -0.0000000000000000000, -1.000000000000000000 ) ) ;
#89 = ADVANCED_FACE ( 'NONE', ( #167 ), #138, .T. ) ;
#90 = DIRECTION ( 'NONE',  ( 0.0000000000000000000, 0.0000000000000000000, 1.000000000000000000 ) ) ;
#91 = DIRECTION ( 'NONE',  ( -1.000000000000000000, 0.0000000000000000000, 0.0000000000000000000 ) ) ;
#92 = DIRECTION ( 'NONE',  ( -0.0000000000000000000, -0.0000000000000000000, -1.000000000000000000 ) ) ;
#93 = EDGE_CURVE ( 'NONE', #174, #118, #133, .T. ) ;
#94 = PERSON_AND_ORGANIZATION_ROLE ( 'creator' ) ;
#95 = PERSON_AND_ORGANIZATION_ROLE ( 'classification_officer' ) ;
#96 = CIRCLE ( 'NONE', #63, 5.000000000000000000 ) ;
#97 = DESIGN_CONTEXT ( 'detailed design', #170, 'design' ) ;
#98 = COORDINATED_UNIVERSAL_TIME_OFFSET ( 5, 0, .BEHIND. ) ;
#99 =( LENGTH_UNIT ( ) NAMED_UNIT ( * ) SI_UNIT ( .MILLI., .METRE. ) );
#100 = DIRECTION ( 'NONE',  ( -0.0000000000000000000, -0.0000000000000000000, -1.000000000000000000 ) ) ;
#101 = DIRECTION ( 'NONE',  ( 1.000000000000000000, 0.0000000000000000000, 0.0000000000000000000 ) ) ;
#102 = ADVANCED_FACE ( 'NONE', ( #103 ), #61, .T. ) ;
#103 = FACE_OUTER_BOUND ( 'NONE', #33, .T. ) ;
#104 = COORDINATED_UNIVERSAL_TIME_OFFSET ( 5, 0, .BEHIND. ) ;
#105 = ORIENTED_EDGE ( 'NONE', *, *, #119, .T. ) ;
#106 = COORDINATED_UNIVERSAL_TIME_OFFSET ( 5, 0, .BEHIND. ) ;
#107 = CARTESIAN_POINT ( 'NONE',  ( 0.0000000000000000000, 0.0000000000000000000, 1.000000000000000000 ) ) ;
#108 = CC_DESIGN_PERSON_AND_ORGANIZATION_ASSIGNMENT ( #123, #95, ( #53 ) ) ;
#109 = CARTESIAN_POINT ( 'NONE',  ( 5.000000000000000000, 6.123233995736766300E-016, 0.0000000000000000000 ) ) ;
#110 = ORGANIZATION ( 'UNSPECIFIED', 'UNSPECIFIED', '' ) ;
#111 = DIRECTION ( 'NONE',  ( 0.0000000000000000000, 0.0000000000000000000, 1.000000000000000000 ) ) ;
#112 = CARTESIAN_POINT ( 'NONE',  ( 0.0000000000000000000, 0.0000000000000000000, 0.0000000000000000000 ) ) ;
#113 = ADVANCED_FACE ( 'NONE', ( #161 ), #35, .T. ) ;
#114 =( NAMED_UNIT ( * ) SI_UNIT ( $, .STERADIAN. ) SOLID_ANGLE_UNIT ( ) );
#115 = ORIENTED_EDGE ( 'NONE', *, *, #70, .F. ) ;
#116 = AXIS2_PLACEMENT_3D ( 'NONE', #22, #111, #36 ) ;
#117 = PERSON_AND_ORGANIZATION_ROLE ( 'design_supplier' ) ;
#118 = VERTEX_POINT ( 'NONE', #165 ) ;
#119 = EDGE_CURVE ( 'NONE', #87, #174, #148, .T. ) ;
#120 = APPROVAL ( #149, 'UNSPECIFIED' ) ;
#121 = SHAPE_DEFINITION_REPRESENTATION ( #2, #86 ) ;
#122 = DIRECTION ( 'NONE',  ( 1.000000000000000000, 0.0000000000000000000, -0.0000000000000000000 ) ) ;
#123 = PERSON_AND_ORGANIZATION ( #14, #110 ) ;
#124 = CARTESIAN_POINT ( 'NONE',  ( -5.000000000000000000, 0.0000000000000000000, 1.000000000000000000 ) ) ;
#125 = CC_DESIGN_PERSON_AND_ORGANIZATION_ASSIGNMENT ( #163, #94, ( #39 ) ) ;
#126 = DIRECTION ( 'NONE',  ( 1.000000000000000000, 0.0000000000000000000, 0.0000000000000000000 ) ) ;
#127 = ORIENTED_EDGE ( 'NONE', *, *, #171, .T. ) ;
#128 = AXIS2_PLACEMENT_3D ( 'NONE', #107, #20, #122 ) ;
#129 = LOCAL_TIME ( 9, 36, 52.00000000000000000, #28 ) ;
#130 = PRODUCT ( 'Web Model 32947_45636', 'Web Model 32947_45636', '', ( #131 ) ) ;
#131 = MECHANICAL_CONTEXT ( 'NONE', #52, 'mechanical' ) ;
#132 = APPROVAL_ROLE ( '' ) ;
#133 = LINE ( 'NONE', #124, #31 ) ;
#134 = CIRCLE ( 'NONE', #116, 5.000000000000000000 ) ;
#135 = CC_DESIGN_DATE_AND_TIME_ASSIGNMENT ( #151, #26, ( #39 ) ) ;
#136 = PRODUCT_DEFINITION_FORMATION_WITH_SPECIFIED_SOURCE ( 'ANY', '', #130, .NOT_KNOWN. ) ;
#137 = EDGE_CURVE ( 'NONE', #118, #76, #134, .T. ) ;
#138 = CYLINDRICAL_SURFACE ( 'NONE', #74, 5.000000000000000000 ) ;
#139 = DIRECTION ( 'NONE',  ( -0.0000000000000000000, -0.0000000000000000000, -1.000000000000000000 ) ) ;
#140 = CARTESIAN_POINT ( 'NONE',  ( 0.0000000000000000000, 0.0000000000000000000, 0.0000000000000000000 ) ) ;
#141 = APPROVAL_PERSON_ORGANIZATION ( #1, #147, #71 ) ;
#142 = CARTESIAN_POINT ( 'NONE',  ( 0.0000000000000000000, 0.0000000000000000000, 0.0000000000000000000 ) ) ;
#143 = EDGE_CURVE ( 'NONE', #76, #118, #168, .T. ) ;
#144 = ORIENTED_EDGE ( 'NONE', *, *, #137, .T. ) ;
#145 = APPLICATION_PROTOCOL_DEFINITION ( 'international standard', 'config_control_design', 1994, #52 ) ;
#146 = PERSON_AND_ORGANIZATION ( #14, #110 ) ;
#147 = APPROVAL ( #56, 'UNSPECIFIED' ) ;
#148 = CIRCLE ( 'NONE', #77, 5.000000000000000000 ) ;
#149 = APPROVAL_STATUS ( 'not_yet_approved' ) ;
#150 = CC_DESIGN_PERSON_AND_ORGANIZATION_ASSIGNMENT ( #159, #15, ( #136 ) ) ;
#151 = DATE_AND_TIME ( #11, #59 ) ;
#152 = APPROVAL_DATE_TIME ( #38, #65 ) ;
#153 = EDGE_LOOP ( 'NONE', ( #115, #4, #175, #144 ) ) ;
#154 = UNCERTAINTY_MEASURE_WITH_UNIT (LENGTH_MEASURE( 1.000000000000000100E-005 ), #99, 'distance_accuracy_value', 'NONE');
#155 = CARTESIAN_POINT ( 'NONE',  ( 0.0000000000000000000, 0.0000000000000000000, 1.000000000000000000 ) ) ;
#156 = EDGE_LOOP ( 'NONE', ( #10, #81, #46, #51 ) ) ;
#157 = CC_DESIGN_DATE_AND_TIME_ASSIGNMENT ( #160, #57, ( #53 ) ) ;
#158 = APPROVAL_DATE_TIME ( #172, #120 ) ;
#159 = PERSON_AND_ORGANIZATION ( #14, #110 ) ;
#160 = DATE_AND_TIME ( #17, #69 ) ;
#161 = FACE_OUTER_BOUND ( 'NONE', #156, .T. ) ;
#162 = PLANE ( 'NONE',  #41 ) ;
#163 = PERSON_AND_ORGANIZATION ( #14, #110 ) ;
#164 = DIRECTION ( 'NONE',  ( 0.0000000000000000000, 0.0000000000000000000, 1.000000000000000000 ) ) ;
#165 = CARTESIAN_POINT ( 'NONE',  ( -5.000000000000000000, 0.0000000000000000000, 0.0000000000000000000 ) ) ;
#166 = AXIS2_PLACEMENT_3D ( 'NONE', #47, #92, #91 ) ;
#167 = FACE_OUTER_BOUND ( 'NONE', #153, .T. ) ;
#168 = CIRCLE ( 'NONE', #37, 5.000000000000000000 ) ;
#169 = DIRECTION ( 'NONE',  ( 1.000000000000000000, 0.0000000000000000000, 0.0000000000000000000 ) ) ;
#170 = APPLICATION_CONTEXT ( 'configuration controlled 3d designs of mechanical parts and assemblies' ) ;
#171 = EDGE_CURVE ( 'NONE', #174, #87, #96, .T. ) ;
#172 = DATE_AND_TIME ( #32, #129 ) ;
#173 = SECURITY_CLASSIFICATION_LEVEL ( 'unclassified' ) ;
#174 = VERTEX_POINT ( 'NONE', #49 ) ;
#175 = ORIENTED_EDGE ( 'NONE', *, *, #93, .T. ) ;
ENDSEC;
END-ISO-10303-21;
