ISO-10303-21;
HEADER;
FILE_DESCRIPTION (( 'STEP AP203' ),
    '1' );
FILE_NAME ('Web Model 45464_36975.step',
    '2019-01-07T15:36:53',
    ( '' ),
    ( '' ),
    'SwSTEP 2.0',
    'SolidWorks 2016',
    '' );
FILE_SCHEMA (( 'CONFIG_CONTROL_DESIGN' ));
ENDSEC;

DATA;
#1 = SHAPE_DEFINITION_REPRESENTATION ( #68, #167 ) ;
#2 = PRODUCT ( 'Web Model 45464_36975', 'Web Model 45464_36975', '', ( #51 ) ) ;
#3 = ORGANIZATION ( 'UNSPECIFIED', 'UNSPECIFIED', '' ) ;
#4 = AXIS2_PLACEMENT_3D ( 'NONE', #93, #11, #18 ) ;
#5 = ORIENTED_EDGE ( 'NONE', *, *, #154, .T. ) ;
#6 = DIRECTION ( 'NONE',  ( -1.000000000000000000, 0.0000000000000000000, 0.0000000000000000000 ) ) ;
#7 = CC_DESIGN_APPROVAL ( #74, ( #21 ) ) ;
#8 = DIRECTION ( 'NONE',  ( 0.0000000000000000000, 0.0000000000000000000, 1.000000000000000000 ) ) ;
#9 = ORIENTED_EDGE ( 'NONE', *, *, #42, .F. ) ;
#10 = CARTESIAN_POINT ( 'NONE',  ( -10.00000000000000000, 0.0000000000000000000, 1.000000000000000000 ) ) ;
#11 = DIRECTION ( 'NONE',  ( 0.0000000000000000000, 0.0000000000000000000, 1.000000000000000000 ) ) ;
#12 = APPROVAL_STATUS ( 'not_yet_approved' ) ;
#13 = PERSON ( 'UNSPECIFIED', 'UNSPECIFIED', 'UNSPECIFIED', ('UNSPECIFIED'), ('UNSPECIFIED'), ('UNSPECIFIED') ) ;
#14 = FACE_OUTER_BOUND ( 'NONE', #124, .T. ) ;
#15 = CC_DESIGN_DATE_AND_TIME_ASSIGNMENT ( #127, #158, ( #83 ) ) ;
#16 = DATE_AND_TIME ( #164, #44 ) ;
#17 = APPROVAL_DATE_TIME ( #26, #74 ) ;
#18 = DIRECTION ( 'NONE',  ( 1.000000000000000000, 0.0000000000000000000, 0.0000000000000000000 ) ) ;
#19 = DIRECTION ( 'NONE',  ( -0.0000000000000000000, -0.0000000000000000000, -1.000000000000000000 ) ) ;
#20 = CARTESIAN_POINT ( 'NONE',  ( 0.0000000000000000000, 0.0000000000000000000, 0.0000000000000000000 ) ) ;
#21 = PRODUCT_DEFINITION_FORMATION_WITH_SPECIFIED_SOURCE ( 'ANY', '', #2, .NOT_KNOWN. ) ;
#22 = ORIENTED_EDGE ( 'NONE', *, *, #122, .F. ) ;
#23 = DIRECTION ( 'NONE',  ( 1.000000000000000000, 0.0000000000000000000, 0.0000000000000000000 ) ) ;
#24 = PERSON_AND_ORGANIZATION_ROLE ( 'creator' ) ;
#25 = SECURITY_CLASSIFICATION_LEVEL ( 'unclassified' ) ;
#26 = DATE_AND_TIME ( #152, #52 ) ;
#27 = ORIENTED_EDGE ( 'NONE', *, *, #54, .F. ) ;
#28 = CC_DESIGN_PERSON_AND_ORGANIZATION_ASSIGNMENT ( #80, #114, ( #21 ) ) ;
#29 = ADVANCED_FACE ( 'NONE', ( #99 ), #96, .T. ) ;
#30 = PERSON_AND_ORGANIZATION ( #13, #3 ) ;
#31 = COORDINATED_UNIVERSAL_TIME_OFFSET ( 5, 0, .BEHIND. ) ;
#32 = LINE ( 'NONE', #78, #56 ) ;
#33 = DIRECTION ( 'NONE',  ( 0.0000000000000000000, 0.0000000000000000000, 1.000000000000000000 ) ) ;
#34 = DIRECTION ( 'NONE',  ( -0.0000000000000000000, -0.0000000000000000000, -1.000000000000000000 ) ) ;
#35 = EDGE_LOOP ( 'NONE', ( #150, #104, #64, #70 ) ) ;
#36 =( NAMED_UNIT ( * ) PLANE_ANGLE_UNIT ( ) SI_UNIT ( $, .RADIAN. ) );
#37 = APPLICATION_PROTOCOL_DEFINITION ( 'international standard', 'config_control_design', 1994, #147 ) ;
#38 = PERSON_AND_ORGANIZATION_ROLE ( 'design_owner' ) ;
#39 = UNCERTAINTY_MEASURE_WITH_UNIT (LENGTH_MEASURE( 1.000000000000000100E-005 ), #168, 'distance_accuracy_value', 'NONE');
#40 = LOCAL_TIME ( 10, 36, 53.00000000000000000, #82 ) ;
#41 = VERTEX_POINT ( 'NONE', #49 ) ;
#42 = EDGE_CURVE ( 'NONE', #163, #174, #117, .T. ) ;
#43 = EDGE_CURVE ( 'NONE', #174, #163, #60, .T. ) ;
#44 = LOCAL_TIME ( 10, 36, 53.00000000000000000, #58 ) ;
#45 = DIRECTION ( 'NONE',  ( 1.000000000000000000, 0.0000000000000000000, 0.0000000000000000000 ) ) ;
#46 = PRODUCT_RELATED_PRODUCT_CATEGORY ( 'detail', '', ( #2 ) ) ;
#47 = APPLICATION_PROTOCOL_DEFINITION ( 'international standard', 'config_control_design', 1994, #112 ) ;
#48 = FACE_OUTER_BOUND ( 'NONE', #166, .T. ) ;
#49 = CARTESIAN_POINT ( 'NONE',  ( 10.00000000000000000, 1.224646799147353300E-015, 1.000000000000000000 ) ) ;
#50 = APPROVAL_ROLE ( '' ) ;
#51 = MECHANICAL_CONTEXT ( 'NONE', #112, 'mechanical' ) ;
#52 = LOCAL_TIME ( 10, 36, 53.00000000000000000, #115 ) ;
#53 = LOCAL_TIME ( 10, 36, 53.00000000000000000, #144 ) ;
#54 = EDGE_CURVE ( 'NONE', #41, #174, #123, .T. ) ;
#55 = ADVANCED_FACE ( 'NONE', ( #48 ), #110, .T. ) ;
#56 = VECTOR ( 'NONE', #156, 1000.000000000000000 ) ;
#57 = ADVANCED_FACE ( 'NONE', ( #134 ), #91, .F. ) ;
#58 = COORDINATED_UNIVERSAL_TIME_OFFSET ( 5, 0, .BEHIND. ) ;
#59 = AXIS2_PLACEMENT_3D ( 'NONE', #131, #33, #172 ) ;
#60 = CIRCLE ( 'NONE', #4, 10.00000000000000000 ) ;
#61 = PERSON_AND_ORGANIZATION ( #13, #3 ) ;
#62 = AXIS2_PLACEMENT_3D ( 'NONE', #141, #8, #45 ) ;
#63 = CARTESIAN_POINT ( 'NONE',  ( 0.0000000000000000000, 0.0000000000000000000, 1.000000000000000000 ) ) ;
#64 = ORIENTED_EDGE ( 'NONE', *, *, #43, .T. ) ;
#65 = DIRECTION ( 'NONE',  ( 0.0000000000000000000, 0.0000000000000000000, 1.000000000000000000 ) ) ;
#66 = DATE_TIME_ROLE ( 'creation_date' ) ;
#67 = VECTOR ( 'NONE', #34, 1000.000000000000000 ) ;
#68 = PRODUCT_DEFINITION_SHAPE ( 'NONE', 'NONE',  #151 ) ;
#69 = PERSON_AND_ORGANIZATION ( #13, #3 ) ;
#70 = ORIENTED_EDGE ( 'NONE', *, *, #154, .F. ) ;
#71 = APPROVAL ( #12, 'UNSPECIFIED' ) ;
#72 = APPROVAL_PERSON_ORGANIZATION ( #61, #71, #103 ) ;
#73 = MANIFOLD_SOLID_BREP ( 'Boss-Extrude1', #119 ) ;
#74 = APPROVAL ( #148, 'UNSPECIFIED' ) ;
#75 = ORIENTED_EDGE ( 'NONE', *, *, #42, .T. ) ;
#76 = CARTESIAN_POINT ( 'NONE',  ( 0.0000000000000000000, 0.0000000000000000000, 1.000000000000000000 ) ) ;
#77 = VERTEX_POINT ( 'NONE', #10 ) ;
#78 = CARTESIAN_POINT ( 'NONE',  ( -10.00000000000000000, 0.0000000000000000000, 1.000000000000000000 ) ) ;
#79 = DIRECTION ( 'NONE',  ( 1.000000000000000000, 0.0000000000000000000, 0.0000000000000000000 ) ) ;
#80 = PERSON_AND_ORGANIZATION ( #13, #3 ) ;
#81 = APPROVAL_STATUS ( 'not_yet_approved' ) ;
#82 = COORDINATED_UNIVERSAL_TIME_OFFSET ( 5, 0, .BEHIND. ) ;
#83 = SECURITY_CLASSIFICATION ( '', '', #25 ) ;
#84 = APPROVAL_DATE_TIME ( #89, #159 ) ;
#85 = CALENDAR_DATE ( 2019, 7, 1 ) ;
#86 = CALENDAR_DATE ( 2019, 7, 1 ) ;
#87 = DIRECTION ( 'NONE',  ( -0.0000000000000000000, -0.0000000000000000000, -1.000000000000000000 ) ) ;
#88 = DESIGN_CONTEXT ( 'detailed design', #147, 'design' ) ;
#89 = DATE_AND_TIME ( #153, #170 ) ;
#90 = CC_DESIGN_PERSON_AND_ORGANIZATION_ASSIGNMENT ( #105, #175, ( #83 ) ) ;
#91 = PLANE ( 'NONE',  #59 ) ;
#92 = CIRCLE ( 'NONE', #62, 10.00000000000000000 ) ;
#93 = CARTESIAN_POINT ( 'NONE',  ( 0.0000000000000000000, 0.0000000000000000000, -1.000000000000000000 ) ) ;
#94 = PERSON_AND_ORGANIZATION_ROLE ( 'creator' ) ;
#95 = PERSON_AND_ORGANIZATION ( #13, #3 ) ;
#96 = CYLINDRICAL_SURFACE ( 'NONE', #143, 10.00000000000000000 ) ;
#97 = AXIS2_PLACEMENT_3D ( 'NONE', #130, #173, #102 ) ;
#98 = ORIENTED_EDGE ( 'NONE', *, *, #122, .T. ) ;
#99 = FACE_OUTER_BOUND ( 'NONE', #35, .T. ) ;
#100 = EDGE_CURVE ( 'NONE', #41, #77, #113, .T. ) ;
#101 = DIRECTION ( 'NONE',  ( 0.0000000000000000000, 0.0000000000000000000, 1.000000000000000000 ) ) ;
#102 = DIRECTION ( 'NONE',  ( 1.000000000000000000, 0.0000000000000000000, 0.0000000000000000000 ) ) ;
#103 = APPROVAL_ROLE ( '' ) ;
#104 = ORIENTED_EDGE ( 'NONE', *, *, #54, .T. ) ;
#105 = PERSON_AND_ORGANIZATION ( #13, #3 ) ;
#106 = CC_DESIGN_APPROVAL ( #71, ( #83 ) ) ;
#107 = CC_DESIGN_SECURITY_CLASSIFICATION ( #83, ( #21 ) ) ;
#108 = AXIS2_PLACEMENT_3D ( 'NONE', #20, #65, #79 ) ;
#109 = ADVANCED_FACE ( 'NONE', ( #14 ), #162, .T. ) ;
#110 = PLANE ( 'NONE',  #120 ) ;
#111 = CARTESIAN_POINT ( 'NONE',  ( 0.0000000000000000000, 0.0000000000000000000, 1.000000000000000000 ) ) ;
#112 = APPLICATION_CONTEXT ( 'configuration controlled 3d designs of mechanical parts and assemblies' ) ;
#113 = CIRCLE ( 'NONE', #133, 10.00000000000000000 ) ;
#114 = PERSON_AND_ORGANIZATION_ROLE ( 'design_supplier' ) ;
#115 = COORDINATED_UNIVERSAL_TIME_OFFSET ( 5, 0, .BEHIND. ) ;
#116 = CC_DESIGN_APPROVAL ( #159, ( #151 ) ) ;
#117 = CIRCLE ( 'NONE', #97, 10.00000000000000000 ) ;
#118 =( GEOMETRIC_REPRESENTATION_CONTEXT ( 3 ) GLOBAL_UNCERTAINTY_ASSIGNED_CONTEXT ( ( #39 ) ) GLOBAL_UNIT_ASSIGNED_CONTEXT ( ( #168, #36, #128 ) ) REPRESENTATION_CONTEXT ( 'NONE', 'WORKASPACE' ) );
#119 = CLOSED_SHELL ( 'NONE', ( #29, #109, #55, #57 ) ) ;
#120 = AXIS2_PLACEMENT_3D ( 'NONE', #63, #155, #169 ) ;
#121 = APPROVAL_PERSON_ORGANIZATION ( #95, #74, #132 ) ;
#122 = EDGE_CURVE ( 'NONE', #77, #41, #92, .T. ) ;
#123 = LINE ( 'NONE', #171, #67 ) ;
#124 = EDGE_LOOP ( 'NONE', ( #27, #22, #5, #75 ) ) ;
#125 = PERSON_AND_ORGANIZATION ( #13, #3 ) ;
#126 = CARTESIAN_POINT ( 'NONE',  ( 10.00000000000000000, 1.224646799147353300E-015, -1.000000000000000000 ) ) ;
#127 = DATE_AND_TIME ( #86, #40 ) ;
#128 =( NAMED_UNIT ( * ) SI_UNIT ( $, .STERADIAN. ) SOLID_ANGLE_UNIT ( ) );
#129 = EDGE_LOOP ( 'NONE', ( #9, #140 ) ) ;
#130 = CARTESIAN_POINT ( 'NONE',  ( 0.0000000000000000000, 0.0000000000000000000, -1.000000000000000000 ) ) ;
#131 = CARTESIAN_POINT ( 'NONE',  ( 0.0000000000000000000, 0.0000000000000000000, -1.000000000000000000 ) ) ;
#132 = APPROVAL_ROLE ( '' ) ;
#133 = AXIS2_PLACEMENT_3D ( 'NONE', #111, #101, #23 ) ;
#134 = FACE_OUTER_BOUND ( 'NONE', #129, .T. ) ;
#135 = CC_DESIGN_PERSON_AND_ORGANIZATION_ASSIGNMENT ( #30, #38, ( #2 ) ) ;
#136 = ORIENTED_EDGE ( 'NONE', *, *, #100, .T. ) ;
#137 = APPROVAL_DATE_TIME ( #142, #71 ) ;
#138 = AXIS2_PLACEMENT_3D ( 'NONE', #157, #19, #145 ) ;
#139 = APPROVAL_PERSON_ORGANIZATION ( #69, #159, #50 ) ;
#140 = ORIENTED_EDGE ( 'NONE', *, *, #43, .F. ) ;
#141 = CARTESIAN_POINT ( 'NONE',  ( 0.0000000000000000000, 0.0000000000000000000, 1.000000000000000000 ) ) ;
#142 = DATE_AND_TIME ( #85, #53 ) ;
#143 = AXIS2_PLACEMENT_3D ( 'NONE', #76, #87, #6 ) ;
#144 = COORDINATED_UNIVERSAL_TIME_OFFSET ( 5, 0, .BEHIND. ) ;
#145 = DIRECTION ( 'NONE',  ( -1.000000000000000000, 0.0000000000000000000, 0.0000000000000000000 ) ) ;
#146 = CARTESIAN_POINT ( 'NONE',  ( -10.00000000000000000, 0.0000000000000000000, -1.000000000000000000 ) ) ;
#147 = APPLICATION_CONTEXT ( 'configuration controlled 3d designs of mechanical parts and assemblies' ) ;
#148 = APPROVAL_STATUS ( 'not_yet_approved' ) ;
#149 = CC_DESIGN_PERSON_AND_ORGANIZATION_ASSIGNMENT ( #160, #94, ( #151 ) ) ;
#150 = ORIENTED_EDGE ( 'NONE', *, *, #100, .F. ) ;
#151 = PRODUCT_DEFINITION ( 'UNKNOWN', '', #21, #88 ) ;
#152 = CALENDAR_DATE ( 2019, 7, 1 ) ;
#153 = CALENDAR_DATE ( 2019, 7, 1 ) ;
#154 = EDGE_CURVE ( 'NONE', #77, #163, #32, .T. ) ;
#155 = DIRECTION ( 'NONE',  ( 0.0000000000000000000, 0.0000000000000000000, 1.000000000000000000 ) ) ;
#156 = DIRECTION ( 'NONE',  ( -0.0000000000000000000, -0.0000000000000000000, -1.000000000000000000 ) ) ;
#157 = CARTESIAN_POINT ( 'NONE',  ( 0.0000000000000000000, 0.0000000000000000000, 1.000000000000000000 ) ) ;
#158 = DATE_TIME_ROLE ( 'classification_date' ) ;
#159 = APPROVAL ( #81, 'UNSPECIFIED' ) ;
#160 = PERSON_AND_ORGANIZATION ( #13, #3 ) ;
#161 = CC_DESIGN_PERSON_AND_ORGANIZATION_ASSIGNMENT ( #125, #24, ( #21 ) ) ;
#162 = CYLINDRICAL_SURFACE ( 'NONE', #138, 10.00000000000000000 ) ;
#163 = VERTEX_POINT ( 'NONE', #146 ) ;
#164 = CALENDAR_DATE ( 2019, 7, 1 ) ;
#165 = CC_DESIGN_DATE_AND_TIME_ASSIGNMENT ( #16, #66, ( #151 ) ) ;
#166 = EDGE_LOOP ( 'NONE', ( #98, #136 ) ) ;
#167 = ADVANCED_BREP_SHAPE_REPRESENTATION ( 'Web Model 45464_36975', ( #73, #108 ), #118 ) ;
#168 =( LENGTH_UNIT ( ) NAMED_UNIT ( * ) SI_UNIT ( .MILLI., .METRE. ) );
#169 = DIRECTION ( 'NONE',  ( 1.000000000000000000, 0.0000000000000000000, -0.0000000000000000000 ) ) ;
#170 = LOCAL_TIME ( 10, 36, 53.00000000000000000, #31 ) ;
#171 = CARTESIAN_POINT ( 'NONE',  ( 10.00000000000000000, 1.224646799147353300E-015, 1.000000000000000000 ) ) ;
#172 = DIRECTION ( 'NONE',  ( 1.000000000000000000, 0.0000000000000000000, -0.0000000000000000000 ) ) ;
#173 = DIRECTION ( 'NONE',  ( 0.0000000000000000000, 0.0000000000000000000, 1.000000000000000000 ) ) ;
#174 = VERTEX_POINT ( 'NONE', #126 ) ;
#175 = PERSON_AND_ORGANIZATION_ROLE ( 'classification_officer' ) ;
ENDSEC;
END-ISO-10303-21;
