ISO-10303-21;
HEADER;
FILE_DESCRIPTION (( 'STEP AP203' ),
    '1' );
FILE_NAME ('Web Model 62643_47685.step',
    '2017-03-06T18:26:54',
    ( '' ),
    ( '' ),
    'SwSTEP 2.0',
    'SolidWorks 2016',
    '' );
FILE_SCHEMA (( 'CONFIG_CONTROL_DESIGN' ));
ENDSEC;

DATA;
#1 = DATE_AND_TIME ( #39, #22 ) ;
#2 = ORIENTED_EDGE ( 'NONE', *, *, #56, .F. ) ;
#3 = PRODUCT_RELATED_PRODUCT_CATEGORY ( 'detail', '', ( #158 ) ) ;
#4 = APPROVAL_ROLE ( '' ) ;
#5 = CARTESIAN_POINT ( 'NONE',  ( 0.0000000000000000000, 0.0000000000000000000, 0.7500000000000000000 ) ) ;
#6 = DIRECTION ( 'NONE',  ( -1.000000000000000000, 0.0000000000000000000, 0.0000000000000000000 ) ) ;
#7 = VERTEX_POINT ( 'NONE', #69 ) ;
#8 = DATE_AND_TIME ( #78, #150 ) ;
#9 = APPROVAL_ROLE ( '' ) ;
#10 = EDGE_CURVE ( 'NONE', #153, #49, #169, .T. ) ;
#11 = PERSON_AND_ORGANIZATION_ROLE ( 'design_owner' ) ;
#12 = DATE_AND_TIME ( #80, #163 ) ;
#13 = LINE ( 'NONE', #116, #133 ) ;
#14 = LINE ( 'NONE', #101, #19 ) ;
#15 = AXIS2_PLACEMENT_3D ( 'NONE', #61, #129, #60 ) ;
#16 = PERSON_AND_ORGANIZATION_ROLE ( 'creator' ) ;
#17 = EDGE_CURVE ( 'NONE', #170, #153, #14, .T. ) ;
#18 = CARTESIAN_POINT ( 'NONE',  ( 0.0000000000000000000, 0.0000000000000000000, 0.7500000000000000000 ) ) ;
#19 = VECTOR ( 'NONE', #155, 1000.000000000000000 ) ;
#20 = DIRECTION ( 'NONE',  ( 0.0000000000000000000, 0.0000000000000000000, 1.000000000000000000 ) ) ;
#21 = APPROVAL_PERSON_ORGANIZATION ( #120, #89, #79 ) ;
#22 = LOCAL_TIME ( 13, 26, 54.00000000000000000, #152 ) ;
#23 = CC_DESIGN_PERSON_AND_ORGANIZATION_ASSIGNMENT ( #138, #11, ( #158 ) ) ;
#24 = PERSON_AND_ORGANIZATION ( #142, #122 ) ;
#25 = SHAPE_DEFINITION_REPRESENTATION ( #146, #30 ) ;
#26 = EDGE_CURVE ( 'NONE', #49, #153, #68, .T. ) ;
#27 = DIRECTION ( 'NONE',  ( 1.000000000000000000, 0.0000000000000000000, 0.0000000000000000000 ) ) ;
#28 = ORIENTED_EDGE ( 'NONE', *, *, #44, .F. ) ;
#29 = DIRECTION ( 'NONE',  ( -0.0000000000000000000, -0.0000000000000000000, -1.000000000000000000 ) ) ;
#30 = ADVANCED_BREP_SHAPE_REPRESENTATION ( 'Web Model 62643_47685', ( #70, #15 ), #131 ) ;
#31 = DIRECTION ( 'NONE',  ( 0.0000000000000000000, 0.0000000000000000000, 1.000000000000000000 ) ) ;
#32 = PRODUCT_DEFINITION ( 'UNKNOWN', '', #81, #130 ) ;
#33 = APPROVAL_STATUS ( 'not_yet_approved' ) ;
#34 =( NAMED_UNIT ( * ) SI_UNIT ( $, .STERADIAN. ) SOLID_ANGLE_UNIT ( ) );
#35 = PLANE ( 'NONE',  #112 ) ;
#36 = COORDINATED_UNIVERSAL_TIME_OFFSET ( 5, 0, .BEHIND. ) ;
#37 = EDGE_CURVE ( 'NONE', #7, #170, #127, .T. ) ;
#38 = FACE_OUTER_BOUND ( 'NONE', #64, .T. ) ;
#39 = CALENDAR_DATE ( 2017, 6, 3 ) ;
#40 = ORIENTED_EDGE ( 'NONE', *, *, #17, .T. ) ;
#41 = APPROVAL ( #145, 'UNSPECIFIED' ) ;
#42 = ORIENTED_EDGE ( 'NONE', *, *, #37, .F. ) ;
#43 = CARTESIAN_POINT ( 'NONE',  ( -5.000000000000000900, 0.0000000000000000000, 0.7500000000000000000 ) ) ;
#44 = EDGE_CURVE ( 'NONE', #7, #49, #13, .T. ) ;
#45 = DATE_AND_TIME ( #73, #74 ) ;
#46 = DATE_TIME_ROLE ( 'creation_date' ) ;
#47 = APPLICATION_PROTOCOL_DEFINITION ( 'international standard', 'config_control_design', 1994, #165 ) ;
#48 = COORDINATED_UNIVERSAL_TIME_OFFSET ( 5, 0, .BEHIND. ) ;
#49 = VERTEX_POINT ( 'NONE', #166 ) ;
#50 = DIRECTION ( 'NONE',  ( -0.0000000000000000000, -0.0000000000000000000, -1.000000000000000000 ) ) ;
#51 = PERSON_AND_ORGANIZATION ( #142, #122 ) ;
#52 = ADVANCED_FACE ( 'NONE', ( #83 ), #35, .F. ) ;
#53 = DIRECTION ( 'NONE',  ( 1.000000000000000000, 0.0000000000000000000, 0.0000000000000000000 ) ) ;
#54 = CC_DESIGN_APPROVAL ( #41, ( #32 ) ) ;
#55 = PERSON_AND_ORGANIZATION ( #142, #122 ) ;
#56 = EDGE_CURVE ( 'NONE', #170, #7, #156, .T. ) ;
#57 = DIRECTION ( 'NONE',  ( 0.0000000000000000000, 0.0000000000000000000, 1.000000000000000000 ) ) ;
#58 = CARTESIAN_POINT ( 'NONE',  ( 0.0000000000000000000, 0.0000000000000000000, -0.7500000000000000000 ) ) ;
#59 = CC_DESIGN_PERSON_AND_ORGANIZATION_ASSIGNMENT ( #109, #117, ( #32 ) ) ;
#60 = DIRECTION ( 'NONE',  ( 1.000000000000000000, 0.0000000000000000000, 0.0000000000000000000 ) ) ;
#61 = CARTESIAN_POINT ( 'NONE',  ( 0.0000000000000000000, 0.0000000000000000000, 0.0000000000000000000 ) ) ;
#62 = APPROVAL_DATE_TIME ( #175, #41 ) ;
#63 = AXIS2_PLACEMENT_3D ( 'NONE', #95, #98, #53 ) ;
#64 = EDGE_LOOP ( 'NONE', ( #28, #2, #40, #126 ) ) ;
#65 = PERSON_AND_ORGANIZATION ( #142, #122 ) ;
#66 = ORIENTED_EDGE ( 'NONE', *, *, #44, .T. ) ;
#67 = CC_DESIGN_DATE_AND_TIME_ASSIGNMENT ( #8, #46, ( #32 ) ) ;
#68 = CIRCLE ( 'NONE', #72, 5.000000000000000900 ) ;
#69 = CARTESIAN_POINT ( 'NONE',  ( 5.000000000000000900, 6.123233995736767300E-016, 0.7500000000000000000 ) ) ;
#70 = MANIFOLD_SOLID_BREP ( 'Boss-Extrude1', #100 ) ;
#71 = MECHANICAL_CONTEXT ( 'NONE', #165, 'mechanical' ) ;
#72 = AXIS2_PLACEMENT_3D ( 'NONE', #123, #86, #27 ) ;
#73 = CALENDAR_DATE ( 2017, 6, 3 ) ;
#74 = LOCAL_TIME ( 13, 26, 54.00000000000000000, #107 ) ;
#75 = UNCERTAINTY_MEASURE_WITH_UNIT (LENGTH_MEASURE( 1.000000000000000100E-005 ), #171, 'distance_accuracy_value', 'NONE');
#76 = EDGE_LOOP ( 'NONE', ( #42, #66, #115, #139 ) ) ;
#77 = DIRECTION ( 'NONE',  ( 0.0000000000000000000, 0.0000000000000000000, 1.000000000000000000 ) ) ;
#78 = CALENDAR_DATE ( 2017, 6, 3 ) ;
#79 = APPROVAL_ROLE ( '' ) ;
#80 = CALENDAR_DATE ( 2017, 6, 3 ) ;
#81 = PRODUCT_DEFINITION_FORMATION_WITH_SPECIFIED_SOURCE ( 'ANY', '', #158, .NOT_KNOWN. ) ;
#82 = ORIENTED_EDGE ( 'NONE', *, *, #37, .T. ) ;
#83 = FACE_OUTER_BOUND ( 'NONE', #159, .T. ) ;
#84 = AXIS2_PLACEMENT_3D ( 'NONE', #18, #20, #85 ) ;
#85 = DIRECTION ( 'NONE',  ( 1.000000000000000000, 0.0000000000000000000, 0.0000000000000000000 ) ) ;
#86 = DIRECTION ( 'NONE',  ( 0.0000000000000000000, 0.0000000000000000000, 1.000000000000000000 ) ) ;
#87 = DIRECTION ( 'NONE',  ( 1.000000000000000000, 0.0000000000000000000, -0.0000000000000000000 ) ) ;
#88 = DIRECTION ( 'NONE',  ( 1.000000000000000000, 0.0000000000000000000, -0.0000000000000000000 ) ) ;
#89 = APPROVAL ( #33, 'UNSPECIFIED' ) ;
#90 = APPROVAL_DATE_TIME ( #12, #89 ) ;
#91 = APPLICATION_CONTEXT ( 'configuration controlled 3d designs of mechanical parts and assemblies' ) ;
#92 = CARTESIAN_POINT ( 'NONE',  ( 0.0000000000000000000, 0.0000000000000000000, 0.7500000000000000000 ) ) ;
#93 = ORIENTED_EDGE ( 'NONE', *, *, #56, .T. ) ;
#94 = PERSON_AND_ORGANIZATION_ROLE ( 'classification_officer' ) ;
#95 = CARTESIAN_POINT ( 'NONE',  ( 0.0000000000000000000, 0.0000000000000000000, -0.7500000000000000000 ) ) ;
#96 = SECURITY_CLASSIFICATION_LEVEL ( 'unclassified' ) ;
#97 = LOCAL_TIME ( 13, 26, 54.00000000000000000, #164 ) ;
#98 = DIRECTION ( 'NONE',  ( 0.0000000000000000000, 0.0000000000000000000, 1.000000000000000000 ) ) ;
#99 = ADVANCED_FACE ( 'NONE', ( #154 ), #114, .T. ) ;
#100 = CLOSED_SHELL ( 'NONE', ( #99, #105, #160, #52 ) ) ;
#101 = CARTESIAN_POINT ( 'NONE',  ( -5.000000000000000900, 0.0000000000000000000, 0.7500000000000000000 ) ) ;
#102 = CC_DESIGN_APPROVAL ( #89, ( #81 ) ) ;
#103 = CARTESIAN_POINT ( 'NONE',  ( -5.000000000000000900, 0.0000000000000000000, -0.7500000000000000000 ) ) ;
#104 = DIRECTION ( 'NONE',  ( -1.000000000000000000, 0.0000000000000000000, 0.0000000000000000000 ) ) ;
#105 = ADVANCED_FACE ( 'NONE', ( #38 ), #168, .T. ) ;
#106 = AXIS2_PLACEMENT_3D ( 'NONE', #162, #77, #132 ) ;
#107 = COORDINATED_UNIVERSAL_TIME_OFFSET ( 5, 0, .BEHIND. ) ;
#108 = CARTESIAN_POINT ( 'NONE',  ( 0.0000000000000000000, 0.0000000000000000000, 0.7500000000000000000 ) ) ;
#109 = PERSON_AND_ORGANIZATION ( #142, #122 ) ;
#110 = CC_DESIGN_PERSON_AND_ORGANIZATION_ASSIGNMENT ( #55, #16, ( #81 ) ) ;
#111 = APPROVAL_PERSON_ORGANIZATION ( #51, #157, #4 ) ;
#112 = AXIS2_PLACEMENT_3D ( 'NONE', #58, #31, #88 ) ;
#113 = APPROVAL_STATUS ( 'not_yet_approved' ) ;
#114 = CYLINDRICAL_SURFACE ( 'NONE', #141, 5.000000000000000900 ) ;
#115 = ORIENTED_EDGE ( 'NONE', *, *, #26, .T. ) ;
#116 = CARTESIAN_POINT ( 'NONE',  ( 5.000000000000000900, 6.123233995736767300E-016, 0.7500000000000000000 ) ) ;
#117 = PERSON_AND_ORGANIZATION_ROLE ( 'creator' ) ;
#118 = APPROVAL_DATE_TIME ( #45, #157 ) ;
#119 = CC_DESIGN_PERSON_AND_ORGANIZATION_ASSIGNMENT ( #174, #144, ( #81 ) ) ;
#120 = PERSON_AND_ORGANIZATION ( #142, #122 ) ;
#121 = DATE_TIME_ROLE ( 'classification_date' ) ;
#122 = ORGANIZATION ( 'UNSPECIFIED', 'UNSPECIFIED', '' ) ;
#123 = CARTESIAN_POINT ( 'NONE',  ( 0.0000000000000000000, 0.0000000000000000000, -0.7500000000000000000 ) ) ;
#124 = ORIENTED_EDGE ( 'NONE', *, *, #26, .F. ) ;
#125 = APPROVAL_PERSON_ORGANIZATION ( #65, #41, #9 ) ;
#126 = ORIENTED_EDGE ( 'NONE', *, *, #10, .T. ) ;
#127 = CIRCLE ( 'NONE', #84, 5.000000000000000900 ) ;
#128 = SECURITY_CLASSIFICATION ( '', '', #96 ) ;
#129 = DIRECTION ( 'NONE',  ( 0.0000000000000000000, 0.0000000000000000000, 1.000000000000000000 ) ) ;
#130 = DESIGN_CONTEXT ( 'detailed design', #91, 'design' ) ;
#131 =( GEOMETRIC_REPRESENTATION_CONTEXT ( 3 ) GLOBAL_UNCERTAINTY_ASSIGNED_CONTEXT ( ( #75 ) ) GLOBAL_UNIT_ASSIGNED_CONTEXT ( ( #171, #147, #34 ) ) REPRESENTATION_CONTEXT ( 'NONE', 'WORKASPACE' ) );
#132 = DIRECTION ( 'NONE',  ( 1.000000000000000000, 0.0000000000000000000, 0.0000000000000000000 ) ) ;
#133 = VECTOR ( 'NONE', #50, 1000.000000000000000 ) ;
#134 = APPLICATION_PROTOCOL_DEFINITION ( 'international standard', 'config_control_design', 1994, #91 ) ;
#135 = CALENDAR_DATE ( 2017, 6, 3 ) ;
#136 = EDGE_LOOP ( 'NONE', ( #93, #82 ) ) ;
#137 = CC_DESIGN_PERSON_AND_ORGANIZATION_ASSIGNMENT ( #24, #94, ( #128 ) ) ;
#138 = PERSON_AND_ORGANIZATION ( #142, #122 ) ;
#139 = ORIENTED_EDGE ( 'NONE', *, *, #17, .F. ) ;
#140 = FACE_OUTER_BOUND ( 'NONE', #136, .T. ) ;
#141 = AXIS2_PLACEMENT_3D ( 'NONE', #92, #29, #6 ) ;
#142 = PERSON ( 'UNSPECIFIED', 'UNSPECIFIED', 'UNSPECIFIED', ('UNSPECIFIED'), ('UNSPECIFIED'), ('UNSPECIFIED') ) ;
#143 = ORIENTED_EDGE ( 'NONE', *, *, #10, .F. ) ;
#144 = PERSON_AND_ORGANIZATION_ROLE ( 'design_supplier' ) ;
#145 = APPROVAL_STATUS ( 'not_yet_approved' ) ;
#146 = PRODUCT_DEFINITION_SHAPE ( 'NONE', 'NONE',  #32 ) ;
#147 =( NAMED_UNIT ( * ) PLANE_ANGLE_UNIT ( ) SI_UNIT ( $, .RADIAN. ) );
#148 = CC_DESIGN_DATE_AND_TIME_ASSIGNMENT ( #1, #121, ( #128 ) ) ;
#149 = PLANE ( 'NONE',  #161 ) ;
#150 = LOCAL_TIME ( 13, 26, 54.00000000000000000, #36 ) ;
#151 = AXIS2_PLACEMENT_3D ( 'NONE', #108, #172, #104 ) ;
#152 = COORDINATED_UNIVERSAL_TIME_OFFSET ( 5, 0, .BEHIND. ) ;
#153 = VERTEX_POINT ( 'NONE', #103 ) ;
#154 = FACE_OUTER_BOUND ( 'NONE', #76, .T. ) ;
#155 = DIRECTION ( 'NONE',  ( -0.0000000000000000000, -0.0000000000000000000, -1.000000000000000000 ) ) ;
#156 = CIRCLE ( 'NONE', #106, 5.000000000000000900 ) ;
#157 = APPROVAL ( #113, 'UNSPECIFIED' ) ;
#158 = PRODUCT ( 'Web Model 62643_47685', 'Web Model 62643_47685', '', ( #71 ) ) ;
#159 = EDGE_LOOP ( 'NONE', ( #143, #124 ) ) ;
#160 = ADVANCED_FACE ( 'NONE', ( #140 ), #149, .T. ) ;
#161 = AXIS2_PLACEMENT_3D ( 'NONE', #5, #57, #87 ) ;
#162 = CARTESIAN_POINT ( 'NONE',  ( 0.0000000000000000000, 0.0000000000000000000, 0.7500000000000000000 ) ) ;
#163 = LOCAL_TIME ( 13, 26, 54.00000000000000000, #48 ) ;
#164 = COORDINATED_UNIVERSAL_TIME_OFFSET ( 5, 0, .BEHIND. ) ;
#165 = APPLICATION_CONTEXT ( 'configuration controlled 3d designs of mechanical parts and assemblies' ) ;
#166 = CARTESIAN_POINT ( 'NONE',  ( 5.000000000000000900, 6.123233995736767300E-016, -0.7500000000000000000 ) ) ;
#167 = CC_DESIGN_APPROVAL ( #157, ( #128 ) ) ;
#168 = CYLINDRICAL_SURFACE ( 'NONE', #151, 5.000000000000000900 ) ;
#169 = CIRCLE ( 'NONE', #63, 5.000000000000000900 ) ;
#170 = VERTEX_POINT ( 'NONE', #43 ) ;
#171 =( LENGTH_UNIT ( ) NAMED_UNIT ( * ) SI_UNIT ( .MILLI., .METRE. ) );
#172 = DIRECTION ( 'NONE',  ( -0.0000000000000000000, -0.0000000000000000000, -1.000000000000000000 ) ) ;
#173 = CC_DESIGN_SECURITY_CLASSIFICATION ( #128, ( #81 ) ) ;
#174 = PERSON_AND_ORGANIZATION ( #142, #122 ) ;
#175 = DATE_AND_TIME ( #135, #97 ) ;
ENDSEC;
END-ISO-10303-21;
