ISO-10303-21;
HEADER;
FILE_DESCRIPTION (( 'STEP AP203' ),
    '1' );
FILE_NAME ('Web Model ZnSe Unctd_39400.step',
    '2018-09-27T18:11:55',
    ( '' ),
    ( '' ),
    'SwSTEP 2.0',
    'SolidWorks 2016',
    '' );
FILE_SCHEMA (( 'CONFIG_CONTROL_DESIGN' ));
ENDSEC;

DATA;
#1 = CYLINDRICAL_SURFACE ( 'NONE', #129, 25.39999999999999900 ) ;
#2 = CC_DESIGN_DATE_AND_TIME_ASSIGNMENT ( #93, #144, ( #161 ) ) ;
#3 = EDGE_LOOP ( 'NONE', ( #90, #46, #155, #128 ) ) ;
#4 = CC_DESIGN_PERSON_AND_ORGANIZATION_ASSIGNMENT ( #47, #131, ( #161 ) ) ;
#5 = DIRECTION ( 'NONE',  ( 0.0000000000000000000, 0.0000000000000000000, 1.000000000000000000 ) ) ;
#6 = PRODUCT_DEFINITION_SHAPE ( 'NONE', 'NONE',  #161 ) ;
#7 = CARTESIAN_POINT ( 'NONE',  ( -25.39999999999999900, 0.0000000000000000000, 0.5000000000000000000 ) ) ;
#8 = CALENDAR_DATE ( 2018, 27, 9 ) ;
#9 = DIRECTION ( 'NONE',  ( 1.000000000000000000, 0.0000000000000000000, 0.0000000000000000000 ) ) ;
#10 =( NAMED_UNIT ( * ) PLANE_ANGLE_UNIT ( ) SI_UNIT ( $, .RADIAN. ) );
#11 = CC_DESIGN_PERSON_AND_ORGANIZATION_ASSIGNMENT ( #123, #164, ( #18 ) ) ;
#12 = PERSON_AND_ORGANIZATION_ROLE ( 'design_supplier' ) ;
#13 = APPLICATION_PROTOCOL_DEFINITION ( 'international standard', 'config_control_design', 1994, #73 ) ;
#14 = DIRECTION ( 'NONE',  ( 1.000000000000000000, 0.0000000000000000000, 0.0000000000000000000 ) ) ;
#15 = CYLINDRICAL_SURFACE ( 'NONE', #55, 25.39999999999999900 ) ;
#16 = EDGE_CURVE ( 'NONE', #97, #150, #162, .T. ) ;
#17 = UNCERTAINTY_MEASURE_WITH_UNIT (LENGTH_MEASURE( 1.000000000000000100E-005 ), #157, 'distance_accuracy_value', 'NONE');
#18 = PRODUCT_DEFINITION_FORMATION_WITH_SPECIFIED_SOURCE ( 'ANY', '', #99, .NOT_KNOWN. ) ;
#19 = DATE_AND_TIME ( #172, #38 ) ;
#20 = PRODUCT_RELATED_PRODUCT_CATEGORY ( 'detail', '', ( #99 ) ) ;
#21 = DIRECTION ( 'NONE',  ( 0.0000000000000000000, 0.0000000000000000000, 1.000000000000000000 ) ) ;
#22 = DIRECTION ( 'NONE',  ( -1.000000000000000000, 0.0000000000000000000, 0.0000000000000000000 ) ) ;
#23 = ORIENTED_EDGE ( 'NONE', *, *, #36, .F. ) ;
#24 = PLANE ( 'NONE',  #109 ) ;
#25 = DIRECTION ( 'NONE',  ( 1.000000000000000000, 0.0000000000000000000, 0.0000000000000000000 ) ) ;
#26 = EDGE_CURVE ( 'NONE', #107, #97, #111, .T. ) ;
#27 = LOCAL_TIME ( 14, 11, 55.00000000000000000, #135 ) ;
#28 = CARTESIAN_POINT ( 'NONE',  ( 0.0000000000000000000, 0.0000000000000000000, -0.5000000000000000000 ) ) ;
#29 = APPLICATION_PROTOCOL_DEFINITION ( 'international standard', 'config_control_design', 1994, #74 ) ;
#30 = APPROVAL_STATUS ( 'not_yet_approved' ) ;
#31 = PERSON_AND_ORGANIZATION_ROLE ( 'classification_officer' ) ;
#32 = APPROVAL_STATUS ( 'not_yet_approved' ) ;
#33 = CC_DESIGN_APPROVAL ( #170, ( #161 ) ) ;
#34 = VECTOR ( 'NONE', #85, 1000.000000000000000 ) ;
#35 = PERSON_AND_ORGANIZATION ( #156, #143 ) ;
#36 = EDGE_CURVE ( 'NONE', #125, #150, #94, .T. ) ;
#37 = EDGE_LOOP ( 'NONE', ( #159, #174 ) ) ;
#38 = LOCAL_TIME ( 14, 11, 55.00000000000000000, #63 ) ;
#39 = DATE_AND_TIME ( #77, #71 ) ;
#40 = ORIENTED_EDGE ( 'NONE', *, *, #158, .F. ) ;
#41 = CARTESIAN_POINT ( 'NONE',  ( 25.39999999999999900, 3.110602869834276900E-015, -0.5000000000000000000 ) ) ;
#42 = DIRECTION ( 'NONE',  ( 1.000000000000000000, 0.0000000000000000000, -0.0000000000000000000 ) ) ;
#43 = DIRECTION ( 'NONE',  ( 0.0000000000000000000, 0.0000000000000000000, 1.000000000000000000 ) ) ;
#44 = COORDINATED_UNIVERSAL_TIME_OFFSET ( 5, 0, .BEHIND. ) ;
#45 = DIRECTION ( 'NONE',  ( -0.0000000000000000000, -0.0000000000000000000, -1.000000000000000000 ) ) ;
#46 = ORIENTED_EDGE ( 'NONE', *, *, #60, .F. ) ;
#47 = PERSON_AND_ORGANIZATION ( #156, #143 ) ;
#48 = CARTESIAN_POINT ( 'NONE',  ( 0.0000000000000000000, 0.0000000000000000000, -0.5000000000000000000 ) ) ;
#49 = SECURITY_CLASSIFICATION_LEVEL ( 'unclassified' ) ;
#50 = AXIS2_PLACEMENT_3D ( 'NONE', #91, #57, #14 ) ;
#51 = ADVANCED_FACE ( 'NONE', ( #120 ), #15, .T. ) ;
#52 = CARTESIAN_POINT ( 'NONE',  ( 0.0000000000000000000, 0.0000000000000000000, 0.0000000000000000000 ) ) ;
#53 = CIRCLE ( 'NONE', #163, 25.39999999999999900 ) ;
#54 = PLANE ( 'NONE',  #168 ) ;
#55 = AXIS2_PLACEMENT_3D ( 'NONE', #84, #45, #112 ) ;
#56 = APPROVAL_ROLE ( '' ) ;
#57 = DIRECTION ( 'NONE',  ( 0.0000000000000000000, 0.0000000000000000000, 1.000000000000000000 ) ) ;
#58 = CALENDAR_DATE ( 2018, 27, 9 ) ;
#59 = EDGE_LOOP ( 'NONE', ( #40, #81, #121, #23 ) ) ;
#60 = EDGE_CURVE ( 'NONE', #125, #107, #53, .T. ) ;
#61 = LOCAL_TIME ( 14, 11, 55.00000000000000000, #160 ) ;
#62 = ORIENTED_EDGE ( 'NONE', *, *, #70, .F. ) ;
#63 = COORDINATED_UNIVERSAL_TIME_OFFSET ( 5, 0, .BEHIND. ) ;
#64 = APPROVAL_PERSON_ORGANIZATION ( #35, #116, #149 ) ;
#65 = APPROVAL ( #30, 'UNSPECIFIED' ) ;
#66 = APPROVAL_DATE_TIME ( #103, #170 ) ;
#67 = CARTESIAN_POINT ( 'NONE',  ( 25.39999999999999900, 3.110602869834276900E-015, 0.5000000000000000000 ) ) ;
#68 = DESIGN_CONTEXT ( 'detailed design', #74, 'design' ) ;
#69 = DIRECTION ( 'NONE',  ( 1.000000000000000000, 0.0000000000000000000, -0.0000000000000000000 ) ) ;
#70 = EDGE_CURVE ( 'NONE', #150, #97, #171, .T. ) ;
#71 = LOCAL_TIME ( 14, 11, 55.00000000000000000, #44 ) ;
#72 = CARTESIAN_POINT ( 'NONE',  ( 25.39999999999999900, 3.110602869834276900E-015, 0.5000000000000000000 ) ) ;
#73 = APPLICATION_CONTEXT ( 'configuration controlled 3d designs of mechanical parts and assemblies' ) ;
#74 = APPLICATION_CONTEXT ( 'configuration controlled 3d designs of mechanical parts and assemblies' ) ;
#75 = APPROVAL_STATUS ( 'not_yet_approved' ) ;
#76 = DIRECTION ( 'NONE',  ( 1.000000000000000000, 0.0000000000000000000, 0.0000000000000000000 ) ) ;
#77 = CALENDAR_DATE ( 2018, 27, 9 ) ;
#78 = DATE_TIME_ROLE ( 'classification_date' ) ;
#79 = CIRCLE ( 'NONE', #50, 25.39999999999999900 ) ;
#80 = CC_DESIGN_APPROVAL ( #65, ( #18 ) ) ;
#81 = ORIENTED_EDGE ( 'NONE', *, *, #26, .T. ) ;
#82 = AXIS2_PLACEMENT_3D ( 'NONE', #98, #130, #9 ) ;
#83 = ADVANCED_FACE ( 'NONE', ( #133 ), #54, .F. ) ;
#84 = CARTESIAN_POINT ( 'NONE',  ( 0.0000000000000000000, 0.0000000000000000000, 0.5000000000000000000 ) ) ;
#85 = DIRECTION ( 'NONE',  ( -0.0000000000000000000, -0.0000000000000000000, -1.000000000000000000 ) ) ;
#86 = CC_DESIGN_PERSON_AND_ORGANIZATION_ASSIGNMENT ( #148, #12, ( #18 ) ) ;
#87 = DIRECTION ( 'NONE',  ( 0.0000000000000000000, 0.0000000000000000000, 1.000000000000000000 ) ) ;
#88 = MANIFOLD_SOLID_BREP ( 'Boss-Extrude1', #165 ) ;
#89 =( NAMED_UNIT ( * ) SI_UNIT ( $, .STERADIAN. ) SOLID_ANGLE_UNIT ( ) );
#90 = ORIENTED_EDGE ( 'NONE', *, *, #26, .F. ) ;
#91 = CARTESIAN_POINT ( 'NONE',  ( 0.0000000000000000000, 0.0000000000000000000, 0.5000000000000000000 ) ) ;
#92 = AXIS2_PLACEMENT_3D ( 'NONE', #48, #87, #25 ) ;
#93 = DATE_AND_TIME ( #152, #61 ) ;
#94 = LINE ( 'NONE', #7, #147 ) ;
#95 = CC_DESIGN_PERSON_AND_ORGANIZATION_ASSIGNMENT ( #173, #31, ( #132 ) ) ;
#96 = CARTESIAN_POINT ( 'NONE',  ( 0.0000000000000000000, 0.0000000000000000000, 0.5000000000000000000 ) ) ;
#97 = VERTEX_POINT ( 'NONE', #41 ) ;
#98 = CARTESIAN_POINT ( 'NONE',  ( 0.0000000000000000000, 0.0000000000000000000, -0.5000000000000000000 ) ) ;
#99 = PRODUCT ( 'Web Model ZnSe Unctd_39400', 'Web Model ZnSe Unctd_39400', '', ( #100 ) ) ;
#100 = MECHANICAL_CONTEXT ( 'NONE', #73, 'mechanical' ) ;
#101 = CC_DESIGN_PERSON_AND_ORGANIZATION_ASSIGNMENT ( #137, #102, ( #99 ) ) ;
#102 = PERSON_AND_ORGANIZATION_ROLE ( 'design_owner' ) ;
#103 = DATE_AND_TIME ( #8, #166 ) ;
#104 = CC_DESIGN_DATE_AND_TIME_ASSIGNMENT ( #39, #78, ( #132 ) ) ;
#105 = PERSON_AND_ORGANIZATION ( #156, #143 ) ;
#106 = SHAPE_DEFINITION_REPRESENTATION ( #6, #154 ) ;
#107 = VERTEX_POINT ( 'NONE', #67 ) ;
#108 = APPROVAL_PERSON_ORGANIZATION ( #105, #170, #119 ) ;
#109 = AXIS2_PLACEMENT_3D ( 'NONE', #96, #5, #42 ) ;
#110 = DIRECTION ( 'NONE',  ( -0.0000000000000000000, -0.0000000000000000000, -1.000000000000000000 ) ) ;
#111 = LINE ( 'NONE', #72, #34 ) ;
#112 = DIRECTION ( 'NONE',  ( -1.000000000000000000, 0.0000000000000000000, 0.0000000000000000000 ) ) ;
#113 = ADVANCED_FACE ( 'NONE', ( #169 ), #1, .T. ) ;
#114 = DIRECTION ( 'NONE',  ( 1.000000000000000000, 0.0000000000000000000, 0.0000000000000000000 ) ) ;
#115 = EDGE_LOOP ( 'NONE', ( #62, #118 ) ) ;
#116 = APPROVAL ( #32, 'UNSPECIFIED' ) ;
#117 = DIRECTION ( 'NONE',  ( 0.0000000000000000000, 0.0000000000000000000, 1.000000000000000000 ) ) ;
#118 = ORIENTED_EDGE ( 'NONE', *, *, #16, .F. ) ;
#119 = APPROVAL_ROLE ( '' ) ;
#120 = FACE_OUTER_BOUND ( 'NONE', #59, .T. ) ;
#121 = ORIENTED_EDGE ( 'NONE', *, *, #16, .T. ) ;
#122 = FACE_OUTER_BOUND ( 'NONE', #37, .T. ) ;
#123 = PERSON_AND_ORGANIZATION ( #156, #143 ) ;
#124 = CC_DESIGN_APPROVAL ( #116, ( #132 ) ) ;
#125 = VERTEX_POINT ( 'NONE', #127 ) ;
#126 = ADVANCED_FACE ( 'NONE', ( #122 ), #24, .T. ) ;
#127 = CARTESIAN_POINT ( 'NONE',  ( -25.39999999999999900, 0.0000000000000000000, 0.5000000000000000000 ) ) ;
#128 = ORIENTED_EDGE ( 'NONE', *, *, #70, .T. ) ;
#129 = AXIS2_PLACEMENT_3D ( 'NONE', #142, #153, #22 ) ;
#130 = DIRECTION ( 'NONE',  ( 0.0000000000000000000, 0.0000000000000000000, 1.000000000000000000 ) ) ;
#131 = PERSON_AND_ORGANIZATION_ROLE ( 'creator' ) ;
#132 = SECURITY_CLASSIFICATION ( '', '', #49 ) ;
#133 = FACE_OUTER_BOUND ( 'NONE', #115, .T. ) ;
#134 = APPROVAL_DATE_TIME ( #19, #65 ) ;
#135 = COORDINATED_UNIVERSAL_TIME_OFFSET ( 5, 0, .BEHIND. ) ;
#136 = APPROVAL_PERSON_ORGANIZATION ( #151, #65, #56 ) ;
#137 = PERSON_AND_ORGANIZATION ( #156, #143 ) ;
#138 =( GEOMETRIC_REPRESENTATION_CONTEXT ( 3 ) GLOBAL_UNCERTAINTY_ASSIGNED_CONTEXT ( ( #17 ) ) GLOBAL_UNIT_ASSIGNED_CONTEXT ( ( #157, #10, #89 ) ) REPRESENTATION_CONTEXT ( 'NONE', 'WORKASPACE' ) );
#139 = CARTESIAN_POINT ( 'NONE',  ( 0.0000000000000000000, 0.0000000000000000000, 0.5000000000000000000 ) ) ;
#140 = CARTESIAN_POINT ( 'NONE',  ( -25.39999999999999900, 0.0000000000000000000, -0.5000000000000000000 ) ) ;
#141 = COORDINATED_UNIVERSAL_TIME_OFFSET ( 5, 0, .BEHIND. ) ;
#142 = CARTESIAN_POINT ( 'NONE',  ( 0.0000000000000000000, 0.0000000000000000000, 0.5000000000000000000 ) ) ;
#143 = ORGANIZATION ( 'UNSPECIFIED', 'UNSPECIFIED', '' ) ;
#144 = DATE_TIME_ROLE ( 'creation_date' ) ;
#145 = APPROVAL_DATE_TIME ( #167, #116 ) ;
#146 = AXIS2_PLACEMENT_3D ( 'NONE', #52, #117, #76 ) ;
#147 = VECTOR ( 'NONE', #110, 1000.000000000000000 ) ;
#148 = PERSON_AND_ORGANIZATION ( #156, #143 ) ;
#149 = APPROVAL_ROLE ( '' ) ;
#150 = VERTEX_POINT ( 'NONE', #140 ) ;
#151 = PERSON_AND_ORGANIZATION ( #156, #143 ) ;
#152 = CALENDAR_DATE ( 2018, 27, 9 ) ;
#153 = DIRECTION ( 'NONE',  ( -0.0000000000000000000, -0.0000000000000000000, -1.000000000000000000 ) ) ;
#154 = ADVANCED_BREP_SHAPE_REPRESENTATION ( 'Web Model ZnSe Unctd_39400', ( #88, #146 ), #138 ) ;
#155 = ORIENTED_EDGE ( 'NONE', *, *, #36, .T. ) ;
#156 = PERSON ( 'UNSPECIFIED', 'UNSPECIFIED', 'UNSPECIFIED', ('UNSPECIFIED'), ('UNSPECIFIED'), ('UNSPECIFIED') ) ;
#157 =( LENGTH_UNIT ( ) NAMED_UNIT ( * ) SI_UNIT ( .MILLI., .METRE. ) );
#158 = EDGE_CURVE ( 'NONE', #107, #125, #79, .T. ) ;
#159 = ORIENTED_EDGE ( 'NONE', *, *, #60, .T. ) ;
#160 = COORDINATED_UNIVERSAL_TIME_OFFSET ( 5, 0, .BEHIND. ) ;
#161 = PRODUCT_DEFINITION ( 'UNKNOWN', '', #18, #68 ) ;
#162 = CIRCLE ( 'NONE', #82, 25.39999999999999900 ) ;
#163 = AXIS2_PLACEMENT_3D ( 'NONE', #139, #43, #114 ) ;
#164 = PERSON_AND_ORGANIZATION_ROLE ( 'creator' ) ;
#165 = CLOSED_SHELL ( 'NONE', ( #51, #113, #126, #83 ) ) ;
#166 = LOCAL_TIME ( 14, 11, 55.00000000000000000, #141 ) ;
#167 = DATE_AND_TIME ( #58, #27 ) ;
#168 = AXIS2_PLACEMENT_3D ( 'NONE', #28, #21, #69 ) ;
#169 = FACE_OUTER_BOUND ( 'NONE', #3, .T. ) ;
#170 = APPROVAL ( #75, 'UNSPECIFIED' ) ;
#171 = CIRCLE ( 'NONE', #92, 25.39999999999999900 ) ;
#172 = CALENDAR_DATE ( 2018, 27, 9 ) ;
#173 = PERSON_AND_ORGANIZATION ( #156, #143 ) ;
#174 = ORIENTED_EDGE ( 'NONE', *, *, #158, .T. ) ;
#175 = CC_DESIGN_SECURITY_CLASSIFICATION ( #132, ( #18 ) ) ;
ENDSEC;
END-ISO-10303-21;
