ISO-10303-21;
HEADER;
FILE_DESCRIPTION (( 'STEP AP203' ),
    '1' );
FILE_NAME ('Web Model 37689_39017.step',
    '2018-10-18T19:44:34',
    ( '' ),
    ( '' ),
    'SwSTEP 2.0',
    'SolidWorks 2016',
    '' );
FILE_SCHEMA (( 'CONFIG_CONTROL_DESIGN' ));
ENDSEC;

DATA;
#1 = CC_DESIGN_APPROVAL ( #106, ( #104 ) ) ;
#2 = EDGE_CURVE ( 'NONE', #44, #38, #148, .T. ) ;
#3 = CARTESIAN_POINT ( 'NONE',  ( 12.69999999999999900, 1.555301434917138400E-015, 3.174999999999999800 ) ) ;
#4 = APPROVAL_PERSON_ORGANIZATION ( #45, #106, #134 ) ;
#5 = DIRECTION ( 'NONE',  ( 1.000000000000000000, 0.0000000000000000000, 0.0000000000000000000 ) ) ;
#6 = DIRECTION ( 'NONE',  ( 0.0000000000000000000, 0.0000000000000000000, 1.000000000000000000 ) ) ;
#7 = CARTESIAN_POINT ( 'NONE',  ( 0.0000000000000000000, 0.0000000000000000000, -3.174999999999999800 ) ) ;
#8 = LINE ( 'NONE', #72, #146 ) ;
#9 =( NAMED_UNIT ( * ) PLANE_ANGLE_UNIT ( ) SI_UNIT ( $, .RADIAN. ) );
#10 = APPLICATION_CONTEXT ( 'configuration controlled 3d designs of mechanical parts and assemblies' ) ;
#11 = ORIENTED_EDGE ( 'NONE', *, *, #41, .T. ) ;
#12 = CALENDAR_DATE ( 2018, 18, 10 ) ;
#13 = EDGE_CURVE ( 'NONE', #44, #110, #8, .T. ) ;
#14 = DATE_TIME_ROLE ( 'classification_date' ) ;
#15 = FACE_OUTER_BOUND ( 'NONE', #83, .T. ) ;
#16 = DATE_AND_TIME ( #85, #138 ) ;
#17 = CC_DESIGN_PERSON_AND_ORGANIZATION_ASSIGNMENT ( #39, #53, ( #104 ) ) ;
#18 = AXIS2_PLACEMENT_3D ( 'NONE', #130, #166, #49 ) ;
#19 = DIRECTION ( 'NONE',  ( 1.000000000000000000, 0.0000000000000000000, -0.0000000000000000000 ) ) ;
#20 = APPLICATION_PROTOCOL_DEFINITION ( 'international standard', 'config_control_design', 1994, #71 ) ;
#21 = CARTESIAN_POINT ( 'NONE',  ( -12.69999999999999900, 0.0000000000000000000, 3.174999999999999800 ) ) ;
#22 = PRODUCT_RELATED_PRODUCT_CATEGORY ( 'detail', '', ( #112 ) ) ;
#23 = APPROVAL_DATE_TIME ( #55, #68 ) ;
#24 = SECURITY_CLASSIFICATION_LEVEL ( 'unclassified' ) ;
#25 = LOCAL_TIME ( 15, 44, 33.00000000000000000, #84 ) ;
#26 = FACE_OUTER_BOUND ( 'NONE', #47, .T. ) ;
#27 = APPROVAL ( #78, 'UNSPECIFIED' ) ;
#28 = EDGE_CURVE ( 'NONE', #38, #46, #40, .T. ) ;
#29 = PERSON_AND_ORGANIZATION ( #75, #136 ) ;
#30 = AXIS2_PLACEMENT_3D ( 'NONE', #58, #119, #59 ) ;
#31 = CLOSED_SHELL ( 'NONE', ( #62, #82, #159, #103 ) ) ;
#32 = DIRECTION ( 'NONE',  ( -0.0000000000000000000, -0.0000000000000000000, -1.000000000000000000 ) ) ;
#33 =( GEOMETRIC_REPRESENTATION_CONTEXT ( 3 ) GLOBAL_UNCERTAINTY_ASSIGNED_CONTEXT ( ( #99 ) ) GLOBAL_UNIT_ASSIGNED_CONTEXT ( ( #167, #9, #156 ) ) REPRESENTATION_CONTEXT ( 'NONE', 'WORKASPACE' ) );
#34 = CYLINDRICAL_SURFACE ( 'NONE', #18, 12.69999999999999900 ) ;
#35 = PERSON_AND_ORGANIZATION ( #75, #136 ) ;
#36 = CARTESIAN_POINT ( 'NONE',  ( 0.0000000000000000000, 0.0000000000000000000, 3.174999999999999800 ) ) ;
#37 = EDGE_CURVE ( 'NONE', #38, #44, #163, .T. ) ;
#38 = VERTEX_POINT ( 'NONE', #92 ) ;
#39 = PERSON_AND_ORGANIZATION ( #75, #136 ) ;
#40 = LINE ( 'NONE', #3, #108 ) ;
#41 = EDGE_CURVE ( 'NONE', #110, #46, #69, .T. ) ;
#42 = PERSON_AND_ORGANIZATION ( #75, #136 ) ;
#43 = AXIS2_PLACEMENT_3D ( 'NONE', #141, #32, #102 ) ;
#44 = VERTEX_POINT ( 'NONE', #21 ) ;
#45 = PERSON_AND_ORGANIZATION ( #75, #136 ) ;
#46 = VERTEX_POINT ( 'NONE', #140 ) ;
#47 = EDGE_LOOP ( 'NONE', ( #66, #123 ) ) ;
#48 = DIRECTION ( 'NONE',  ( 0.0000000000000000000, 0.0000000000000000000, 1.000000000000000000 ) ) ;
#49 = DIRECTION ( 'NONE',  ( -1.000000000000000000, 0.0000000000000000000, 0.0000000000000000000 ) ) ;
#50 = CARTESIAN_POINT ( 'NONE',  ( 0.0000000000000000000, 0.0000000000000000000, -3.174999999999999800 ) ) ;
#51 = MANIFOLD_SOLID_BREP ( 'Boss-Extrude1', #31 ) ;
#52 = PRODUCT_DEFINITION_SHAPE ( 'NONE', 'NONE',  #162 ) ;
#53 = PERSON_AND_ORGANIZATION_ROLE ( 'creator' ) ;
#54 = CC_DESIGN_PERSON_AND_ORGANIZATION_ASSIGNMENT ( #105, #121, ( #172 ) ) ;
#55 = DATE_AND_TIME ( #157, #25 ) ;
#56 = APPROVAL_PERSON_ORGANIZATION ( #29, #68, #144 ) ;
#57 = ADVANCED_BREP_SHAPE_REPRESENTATION ( 'Web Model 37689_39017', ( #51, #160 ), #33 ) ;
#58 = CARTESIAN_POINT ( 'NONE',  ( 0.0000000000000000000, 0.0000000000000000000, 3.174999999999999800 ) ) ;
#59 = DIRECTION ( 'NONE',  ( 1.000000000000000000, 0.0000000000000000000, 0.0000000000000000000 ) ) ;
#60 = DIRECTION ( 'NONE',  ( 0.0000000000000000000, 0.0000000000000000000, 1.000000000000000000 ) ) ;
#61 = DIRECTION ( 'NONE',  ( 1.000000000000000000, 0.0000000000000000000, 0.0000000000000000000 ) ) ;
#62 = ADVANCED_FACE ( 'NONE', ( #15 ), #34, .T. ) ;
#63 = APPLICATION_PROTOCOL_DEFINITION ( 'international standard', 'config_control_design', 1994, #10 ) ;
#64 = CALENDAR_DATE ( 2018, 18, 10 ) ;
#65 = CIRCLE ( 'NONE', #89, 12.69999999999999900 ) ;
#66 = ORIENTED_EDGE ( 'NONE', *, *, #2, .T. ) ;
#67 = PERSON_AND_ORGANIZATION ( #75, #136 ) ;
#68 = APPROVAL ( #107, 'UNSPECIFIED' ) ;
#69 = CIRCLE ( 'NONE', #94, 12.69999999999999900 ) ;
#70 = LOCAL_TIME ( 15, 44, 33.00000000000000000, #111 ) ;
#71 = APPLICATION_CONTEXT ( 'configuration controlled 3d designs of mechanical parts and assemblies' ) ;
#72 = CARTESIAN_POINT ( 'NONE',  ( -12.69999999999999900, 0.0000000000000000000, 3.174999999999999800 ) ) ;
#73 = ORIENTED_EDGE ( 'NONE', *, *, #164, .F. ) ;
#74 = PERSON_AND_ORGANIZATION ( #75, #136 ) ;
#75 = PERSON ( 'UNSPECIFIED', 'UNSPECIFIED', 'UNSPECIFIED', ('UNSPECIFIED'), ('UNSPECIFIED'), ('UNSPECIFIED') ) ;
#76 = DIRECTION ( 'NONE',  ( 1.000000000000000000, 0.0000000000000000000, -0.0000000000000000000 ) ) ;
#77 = CC_DESIGN_DATE_AND_TIME_ASSIGNMENT ( #91, #14, ( #172 ) ) ;
#78 = APPROVAL_STATUS ( 'not_yet_approved' ) ;
#79 = ORIENTED_EDGE ( 'NONE', *, *, #37, .F. ) ;
#80 = PERSON_AND_ORGANIZATION_ROLE ( 'design_owner' ) ;
#81 = APPROVAL_ROLE ( '' ) ;
#82 = ADVANCED_FACE ( 'NONE', ( #86 ), #171, .T. ) ;
#83 = EDGE_LOOP ( 'NONE', ( #79, #147, #137, #168 ) ) ;
#84 = COORDINATED_UNIVERSAL_TIME_OFFSET ( 5, 0, .BEHIND. ) ;
#85 = CALENDAR_DATE ( 2018, 18, 10 ) ;
#86 = FACE_OUTER_BOUND ( 'NONE', #169, .T. ) ;
#87 = DATE_AND_TIME ( #127, #70 ) ;
#88 = CC_DESIGN_APPROVAL ( #27, ( #162 ) ) ;
#89 = AXIS2_PLACEMENT_3D ( 'NONE', #50, #143, #61 ) ;
#90 = CARTESIAN_POINT ( 'NONE',  ( 0.0000000000000000000, 0.0000000000000000000, 0.0000000000000000000 ) ) ;
#91 = DATE_AND_TIME ( #64, #100 ) ;
#92 = CARTESIAN_POINT ( 'NONE',  ( 12.69999999999999900, 1.555301434917138400E-015, 3.174999999999999800 ) ) ;
#93 = CARTESIAN_POINT ( 'NONE',  ( -12.69999999999999900, 0.0000000000000000000, -3.174999999999999800 ) ) ;
#94 = AXIS2_PLACEMENT_3D ( 'NONE', #7, #101, #115 ) ;
#95 = DATE_TIME_ROLE ( 'creation_date' ) ;
#96 = PERSON_AND_ORGANIZATION_ROLE ( 'creator' ) ;
#97 = APPROVAL_DATE_TIME ( #87, #106 ) ;
#98 = CC_DESIGN_APPROVAL ( #68, ( #172 ) ) ;
#99 = UNCERTAINTY_MEASURE_WITH_UNIT (LENGTH_MEASURE( 1.000000000000000100E-005 ), #167, 'distance_accuracy_value', 'NONE');
#100 = LOCAL_TIME ( 15, 44, 33.00000000000000000, #170 ) ;
#101 = DIRECTION ( 'NONE',  ( 0.0000000000000000000, 0.0000000000000000000, 1.000000000000000000 ) ) ;
#102 = DIRECTION ( 'NONE',  ( -1.000000000000000000, 0.0000000000000000000, 0.0000000000000000000 ) ) ;
#103 = ADVANCED_FACE ( 'NONE', ( #149 ), #117, .F. ) ;
#104 = PRODUCT_DEFINITION_FORMATION_WITH_SPECIFIED_SOURCE ( 'ANY', '', #112, .NOT_KNOWN. ) ;
#105 = PERSON_AND_ORGANIZATION ( #75, #136 ) ;
#106 = APPROVAL ( #135, 'UNSPECIFIED' ) ;
#107 = APPROVAL_STATUS ( 'not_yet_approved' ) ;
#108 = VECTOR ( 'NONE', #150, 1000.000000000000000 ) ;
#109 = CC_DESIGN_PERSON_AND_ORGANIZATION_ASSIGNMENT ( #74, #80, ( #112 ) ) ;
#110 = VERTEX_POINT ( 'NONE', #93 ) ;
#111 = COORDINATED_UNIVERSAL_TIME_OFFSET ( 5, 0, .BEHIND. ) ;
#112 = PRODUCT ( 'Web Model 37689_39017', 'Web Model 37689_39017', '', ( #133 ) ) ;
#113 = CC_DESIGN_PERSON_AND_ORGANIZATION_ASSIGNMENT ( #67, #158, ( #104 ) ) ;
#114 = ORIENTED_EDGE ( 'NONE', *, *, #13, .T. ) ;
#115 = DIRECTION ( 'NONE',  ( 1.000000000000000000, 0.0000000000000000000, 0.0000000000000000000 ) ) ;
#116 = APPROVAL_PERSON_ORGANIZATION ( #35, #27, #81 ) ;
#117 = PLANE ( 'NONE',  #145 ) ;
#118 = CC_DESIGN_PERSON_AND_ORGANIZATION_ASSIGNMENT ( #42, #96, ( #162 ) ) ;
#119 = DIRECTION ( 'NONE',  ( 0.0000000000000000000, 0.0000000000000000000, 1.000000000000000000 ) ) ;
#120 = EDGE_LOOP ( 'NONE', ( #175, #73 ) ) ;
#121 = PERSON_AND_ORGANIZATION_ROLE ( 'classification_officer' ) ;
#122 = LOCAL_TIME ( 15, 44, 33.00000000000000000, #174 ) ;
#123 = ORIENTED_EDGE ( 'NONE', *, *, #37, .T. ) ;
#124 = DATE_AND_TIME ( #12, #122 ) ;
#125 = APPROVAL_DATE_TIME ( #16, #27 ) ;
#126 = CC_DESIGN_SECURITY_CLASSIFICATION ( #172, ( #104 ) ) ;
#127 = CALENDAR_DATE ( 2018, 18, 10 ) ;
#128 = AXIS2_PLACEMENT_3D ( 'NONE', #151, #6, #165 ) ;
#129 = DIRECTION ( 'NONE',  ( 0.0000000000000000000, 0.0000000000000000000, 1.000000000000000000 ) ) ;
#130 = CARTESIAN_POINT ( 'NONE',  ( 0.0000000000000000000, 0.0000000000000000000, 3.174999999999999800 ) ) ;
#131 = DESIGN_CONTEXT ( 'detailed design', #10, 'design' ) ;
#132 = DIRECTION ( 'NONE',  ( -0.0000000000000000000, -0.0000000000000000000, -1.000000000000000000 ) ) ;
#133 = MECHANICAL_CONTEXT ( 'NONE', #71, 'mechanical' ) ;
#134 = APPROVAL_ROLE ( '' ) ;
#135 = APPROVAL_STATUS ( 'not_yet_approved' ) ;
#136 = ORGANIZATION ( 'UNSPECIFIED', 'UNSPECIFIED', '' ) ;
#137 = ORIENTED_EDGE ( 'NONE', *, *, #164, .T. ) ;
#138 = LOCAL_TIME ( 15, 44, 33.00000000000000000, #161 ) ;
#139 = ORIENTED_EDGE ( 'NONE', *, *, #28, .F. ) ;
#140 = CARTESIAN_POINT ( 'NONE',  ( 12.69999999999999900, 1.555301434917138400E-015, -3.174999999999999800 ) ) ;
#141 = CARTESIAN_POINT ( 'NONE',  ( 0.0000000000000000000, 0.0000000000000000000, 3.174999999999999800 ) ) ;
#142 = CC_DESIGN_DATE_AND_TIME_ASSIGNMENT ( #124, #95, ( #162 ) ) ;
#143 = DIRECTION ( 'NONE',  ( 0.0000000000000000000, 0.0000000000000000000, 1.000000000000000000 ) ) ;
#144 = APPROVAL_ROLE ( '' ) ;
#145 = AXIS2_PLACEMENT_3D ( 'NONE', #155, #129, #19 ) ;
#146 = VECTOR ( 'NONE', #132, 1000.000000000000000 ) ;
#147 = ORIENTED_EDGE ( 'NONE', *, *, #28, .T. ) ;
#148 = CIRCLE ( 'NONE', #128, 12.69999999999999900 ) ;
#149 = FACE_OUTER_BOUND ( 'NONE', #120, .T. ) ;
#150 = DIRECTION ( 'NONE',  ( -0.0000000000000000000, -0.0000000000000000000, -1.000000000000000000 ) ) ;
#151 = CARTESIAN_POINT ( 'NONE',  ( 0.0000000000000000000, 0.0000000000000000000, 3.174999999999999800 ) ) ;
#152 = PLANE ( 'NONE',  #154 ) ;
#153 = SHAPE_DEFINITION_REPRESENTATION ( #52, #57 ) ;
#154 = AXIS2_PLACEMENT_3D ( 'NONE', #36, #60, #76 ) ;
#155 = CARTESIAN_POINT ( 'NONE',  ( 0.0000000000000000000, 0.0000000000000000000, -3.174999999999999800 ) ) ;
#156 =( NAMED_UNIT ( * ) SI_UNIT ( $, .STERADIAN. ) SOLID_ANGLE_UNIT ( ) );
#157 = CALENDAR_DATE ( 2018, 18, 10 ) ;
#158 = PERSON_AND_ORGANIZATION_ROLE ( 'design_supplier' ) ;
#159 = ADVANCED_FACE ( 'NONE', ( #26 ), #152, .T. ) ;
#160 = AXIS2_PLACEMENT_3D ( 'NONE', #90, #48, #5 ) ;
#161 = COORDINATED_UNIVERSAL_TIME_OFFSET ( 5, 0, .BEHIND. ) ;
#162 = PRODUCT_DEFINITION ( 'UNKNOWN', '', #104, #131 ) ;
#163 = CIRCLE ( 'NONE', #30, 12.69999999999999900 ) ;
#164 = EDGE_CURVE ( 'NONE', #46, #110, #65, .T. ) ;
#165 = DIRECTION ( 'NONE',  ( 1.000000000000000000, 0.0000000000000000000, 0.0000000000000000000 ) ) ;
#166 = DIRECTION ( 'NONE',  ( -0.0000000000000000000, -0.0000000000000000000, -1.000000000000000000 ) ) ;
#167 =( LENGTH_UNIT ( ) NAMED_UNIT ( * ) SI_UNIT ( .MILLI., .METRE. ) );
#168 = ORIENTED_EDGE ( 'NONE', *, *, #13, .F. ) ;
#169 = EDGE_LOOP ( 'NONE', ( #139, #173, #114, #11 ) ) ;
#170 = COORDINATED_UNIVERSAL_TIME_OFFSET ( 5, 0, .BEHIND. ) ;
#171 = CYLINDRICAL_SURFACE ( 'NONE', #43, 12.69999999999999900 ) ;
#172 = SECURITY_CLASSIFICATION ( '', '', #24 ) ;
#173 = ORIENTED_EDGE ( 'NONE', *, *, #2, .F. ) ;
#174 = COORDINATED_UNIVERSAL_TIME_OFFSET ( 5, 0, .BEHIND. ) ;
#175 = ORIENTED_EDGE ( 'NONE', *, *, #41, .F. ) ;
ENDSEC;
END-ISO-10303-21;
