ISO-10303-21;
HEADER;
FILE_DESCRIPTION (( 'STEP AP214' ),
    '1' );
FILE_NAME ('4435-E0W.STEP',
    '2009-12-21T17:01:19',
    ( ' ' ),
    ( ' ' ),
    'SwSTEP 2.0',
    'SolidWorks 2009',
    '' );
FILE_SCHEMA (( 'AUTOMOTIVE_DESIGN' ));
ENDSEC;

DATA;
#1 =( NAMED_UNIT ( * ) SI_UNIT ( $, .STERADIAN. ) SOLID_ANGLE_UNIT ( ) );
#2 = DIRECTION ( 'NONE',  ( 1.000000000000000000, 0.0000000000000000000, 0.0000000000000000000 ) ) ;
#3 = DIRECTION ( 'NONE',  ( 1.000000000000000000, 0.0000000000000000000, 0.0000000000000000000 ) ) ;
#4 = CIRCLE ( 'NONE', #7, 12.69999999999999800 ) ;
#5 = DIRECTION ( 'NONE',  ( 1.000000000000000000, 0.0000000000000000000, 0.0000000000000000000 ) ) ;
#6 = DIRECTION ( 'NONE',  ( -0.0000000000000000000, -0.0000000000000000000, 1.000000000000000000 ) ) ;
#7 = AXIS2_PLACEMENT_3D ( 'NONE', #8, #6, #5 ) ;
#8 = CARTESIAN_POINT ( 'NONE',  ( 0.0000000000000000000, 0.0000000000000000000, 0.2045181303125817900 ) ) ;
#9 =( GEOMETRIC_REPRESENTATION_CONTEXT ( 3 ) GLOBAL_UNCERTAINTY_ASSIGNED_CONTEXT ( ( #10 ) ) GLOBAL_UNIT_ASSIGNED_CONTEXT ( ( #145, #167, #1 ) ) REPRESENTATION_CONTEXT ( 'NONE', 'WORKASPACE' ) );
#10 = UNCERTAINTY_MEASURE_WITH_UNIT (LENGTH_MEASURE( 1.000000000000000100E-005 ), #145, 'distance_accuracy_value', 'NONE');
#11 = ORIENTED_EDGE ( 'NONE', *, *, #24, .T. ) ;
#12 = ORIENTED_EDGE ( 'NONE', *, *, #28, .F. ) ;
#13 = ORIENTED_EDGE ( 'NONE', *, *, #32, .F. ) ;
#14 = ORIENTED_EDGE ( 'NONE', *, *, #65, .T. ) ;
#15 = ORIENTED_EDGE ( 'NONE', *, *, #21, .F. ) ;
#16 = ORIENTED_EDGE ( 'NONE', *, *, #29, .T. ) ;
#17 = EDGE_LOOP ( 'NONE', ( #11, #23, #36, #37 ) ) ;
#18 = CARTESIAN_POINT ( 'NONE',  ( -12.69999999999999900, 1.555250069354419100E-015, 4.308132045400366600 ) ) ;
#19 = LINE ( 'NONE', #18, #41 ) ;
#20 = ORIENTED_EDGE ( 'NONE', *, *, #21, .T. ) ;
#21 = EDGE_CURVE ( 'NONE', #64, #22, #19, .T. ) ;
#22 = VERTEX_POINT ( 'NONE', #39 ) ;
#23 = ORIENTED_EDGE ( 'NONE', *, *, #66, .T. ) ;
#24 = EDGE_CURVE ( 'NONE', #44, #22, #4, .T. ) ;
#25 = EDGE_LOOP ( 'NONE', ( #15, #16, #14, #13, #55 ) ) ;
#26 = ADVANCED_FACE ( 'NONE', ( #120 ), #101, .T. ) ;
#27 = VERTEX_POINT ( 'NONE', #91 ) ;
#28 = EDGE_CURVE ( 'NONE', #57, #44, #103, .T. ) ;
#29 = EDGE_CURVE ( 'NONE', #64, #63, #123, .T. ) ;
#30 = ORIENTED_EDGE ( 'NONE', *, *, #38, .T. ) ;
#31 = ADVANCED_FACE ( 'NONE', ( #88 ), #69, .T. ) ;
#32 = EDGE_CURVE ( 'NONE', #27, #57, #117, .T. ) ;
#33 = MANIFOLD_SOLID_BREP ( 'NONE', #50 ) ;
#34 = ADVANCED_FACE ( 'NONE', ( #126 ), #139, .T. ) ;
#35 = ORIENTED_EDGE ( 'NONE', *, *, #32, .T. ) ;
#36 = ORIENTED_EDGE ( 'NONE', *, *, #43, .T. ) ;
#37 = ORIENTED_EDGE ( 'NONE', *, *, #38, .F. ) ;
#38 = EDGE_CURVE ( 'NONE', #44, #59, #178, .T. ) ;
#39 = CARTESIAN_POINT ( 'NONE',  ( -12.69999999999999800, 1.555250069354418900E-015, 0.2045181303125817900 ) ) ;
#40 = DIRECTION ( 'NONE',  ( -0.0000000000000000000, -0.0000000000000000000, 1.000000000000000000 ) ) ;
#41 = VECTOR ( 'NONE', #40, 1000.000000000000000 ) ;
#42 = ORIENTED_EDGE ( 'NONE', *, *, #24, .F. ) ;
#43 = EDGE_CURVE ( 'NONE', #27, #59, #186, .T. ) ;
#44 = VERTEX_POINT ( 'NONE', #172 ) ;
#45 = DIRECTION ( 'NONE',  ( 0.0000000000000000000, 0.0000000000000000000, 1.000000000000000000 ) ) ;
#46 = CARTESIAN_POINT ( 'NONE',  ( 0.0000000000000000000, 0.0000000000000000000, 0.0000000000000000000 ) ) ;
#47 = AXIS2_PLACEMENT_3D ( 'NONE', #46, #45, #3 ) ;
#48 = ADVANCED_FACE ( 'NONE', ( #171 ), #169, .T. ) ;
#49 = ORIENTED_EDGE ( 'NONE', *, *, #28, .T. ) ;
#50 = CLOSED_SHELL ( 'NONE', ( #34, #26, #31, #48, #51 ) ) ;
#51 = ADVANCED_FACE ( 'NONE', ( #165 ), #214, .F. ) ;
#52 = ORIENTED_EDGE ( 'NONE', *, *, #29, .F. ) ;
#53 = EDGE_LOOP ( 'NONE', ( #54, #52 ) ) ;
#54 = ORIENTED_EDGE ( 'NONE', *, *, #62, .F. ) ;
#55 = ORIENTED_EDGE ( 'NONE', *, *, #66, .F. ) ;
#56 = ORIENTED_EDGE ( 'NONE', *, *, #65, .F. ) ;
#57 = VERTEX_POINT ( 'NONE', #228 ) ;
#58 = EDGE_LOOP ( 'NONE', ( #67, #35, #49, #30 ) ) ;
#59 = VERTEX_POINT ( 'NONE', #208 ) ;
#60 = EDGE_LOOP ( 'NONE', ( #61, #20, #42, #12, #56 ) ) ;
#61 = ORIENTED_EDGE ( 'NONE', *, *, #62, .T. ) ;
#62 = EDGE_CURVE ( 'NONE', #63, #64, #226, .T. ) ;
#63 = VERTEX_POINT ( 'NONE', #210 ) ;
#64 = VERTEX_POINT ( 'NONE', #239 ) ;
#65 = EDGE_CURVE ( 'NONE', #63, #57, #224, .T. ) ;
#66 = EDGE_CURVE ( 'NONE', #22, #27, #248, .T. ) ;
#67 = ORIENTED_EDGE ( 'NONE', *, *, #43, .F. ) ;
#68 = CARTESIAN_POINT ( 'NONE',  ( 0.0000000000000000000, 0.0000000000000000000, -49.70499999999999800 ) ) ;
#69 = SPHERICAL_SURFACE ( 'NONE', #107, 51.50000000000000700 ) ;
#70 =( NAMED_UNIT ( * ) SI_UNIT ( $, .STERADIAN. ) SOLID_ANGLE_UNIT ( ) );
#71 = CARTESIAN_POINT ( 'NONE',  ( 0.0000000000000000000, 0.0000000000000000000, 0.2045181303125817900 ) ) ;
#72 = FILL_AREA_STYLE ('',( #87 ) ) ;
#73 =( GEOMETRIC_REPRESENTATION_CONTEXT ( 3 ) GLOBAL_UNCERTAINTY_ASSIGNED_CONTEXT ( ( #109 ) ) GLOBAL_UNIT_ASSIGNED_CONTEXT ( ( #124, #112, #110 ) ) REPRESENTATION_CONTEXT ( 'NONE', 'WORKASPACE' ) );
#74 = COLOUR_RGB ( '',0.9568627450980391500, 0.9490196078431372100, 0.9607843137254902200 ) ;
#75 = DIRECTION ( 'NONE',  ( 0.0000000000000000000, 1.000000000000000000, 0.0000000000000000000 ) ) ;
#76 = PRESENTATION_STYLE_ASSIGNMENT (( #77 ) ) ;
#77 = SURFACE_STYLE_USAGE ( .BOTH. , #95 ) ;
#78 = SURFACE_STYLE_USAGE ( .BOTH. , #79 ) ;
#79 = SURFACE_SIDE_STYLE ('',( #80 ) ) ;
#80 = SURFACE_STYLE_FILL_AREA ( #72 ) ;
#81 = COLOUR_RGB ( '',0.9568627450980391500, 0.9490196078431372100, 0.9607843137254902200 ) ;
#82 = FILL_AREA_STYLE ('',( #83 ) ) ;
#83 = FILL_AREA_STYLE_COLOUR ( '', #74 ) ;
#84 = PRESENTATION_LAYER_ASSIGNMENT (  '', '', ( #85 ) ) ;
#85 = STYLED_ITEM ( 'NONE', ( #86 ), #31 ) ;
#86 = PRESENTATION_STYLE_ASSIGNMENT (( #78 ) ) ;
#87 = FILL_AREA_STYLE_COLOUR ( '', #81 ) ;
#88 = FACE_OUTER_BOUND ( 'NONE', #58, .T. ) ;
#89 = DIRECTION ( 'NONE',  ( 1.000000000000000000, 0.0000000000000000000, 0.0000000000000000000 ) ) ;
#90 = DIRECTION ( 'NONE',  ( -0.0000000000000000000, -0.0000000000000000000, 1.000000000000000000 ) ) ;
#91 = CARTESIAN_POINT ( 'NONE',  ( -1.555250069354420500E-015, -12.70000000000001000, 0.2045181303125813700 ) ) ;
#92 = PRESENTATION_LAYER_ASSIGNMENT (  '', '', ( #113 ) ) ;
#93 = DIRECTION ( 'NONE',  ( -1.000000000000000000, 0.0000000000000000000, 0.0000000000000000000 ) ) ;
#94 = CARTESIAN_POINT ( 'NONE',  ( 0.0000000000000000000, 0.0000000000000000000, -49.70499999999999800 ) ) ;
#95 = SURFACE_SIDE_STYLE ('',( #96 ) ) ;
#96 = SURFACE_STYLE_FILL_AREA ( #82 ) ;
#97 = DIRECTION ( 'NONE',  ( 1.000000000000000000, 0.0000000000000000000, 0.0000000000000000000 ) ) ;
#98 = DIRECTION ( 'NONE',  ( -0.0000000000000000000, -0.0000000000000000000, 1.000000000000000000 ) ) ;
#99 = UNCERTAINTY_MEASURE_WITH_UNIT (LENGTH_MEASURE( 1.000000000000000100E-005 ), #104, 'distance_accuracy_value', 'NONE');
#100 = AXIS2_PLACEMENT_3D ( 'NONE', #94, #93, #75 ) ;
#101 = SPHERICAL_SURFACE ( 'NONE', #100, 51.50000000000000700 ) ;
#102 = AXIS2_PLACEMENT_3D ( 'NONE', #71, #98, #97 ) ;
#103 = CIRCLE ( 'NONE', #102, 12.69999999999999800 ) ;
#104 =( LENGTH_UNIT ( ) NAMED_UNIT ( * ) SI_UNIT ( .MILLI., .METRE. ) );
#105 =( NAMED_UNIT ( * ) PLANE_ANGLE_UNIT ( ) SI_UNIT ( $, .RADIAN. ) );
#106 = DIRECTION ( 'NONE',  ( -1.000000000000000000, 0.0000000000000000000, 0.0000000000000000000 ) ) ;
#107 = AXIS2_PLACEMENT_3D ( 'NONE', #68, #106, #118 ) ;
#108 = MECHANICAL_DESIGN_GEOMETRIC_PRESENTATION_REPRESENTATION (  '', ( #113 ), #119 ) ;
#109 = UNCERTAINTY_MEASURE_WITH_UNIT (LENGTH_MEASURE( 1.000000000000000100E-005 ), #124, 'distance_accuracy_value', 'NONE');
#110 =( NAMED_UNIT ( * ) SI_UNIT ( $, .STERADIAN. ) SOLID_ANGLE_UNIT ( ) );
#111 = MECHANICAL_DESIGN_GEOMETRIC_PRESENTATION_REPRESENTATION (  '', ( #85 ), #73 ) ;
#112 =( NAMED_UNIT ( * ) PLANE_ANGLE_UNIT ( ) SI_UNIT ( $, .RADIAN. ) );
#113 = STYLED_ITEM ( 'NONE', ( #76 ), #26 ) ;
#114 = DIRECTION ( 'NONE',  ( -0.0000000000000000000, -0.0000000000000000000, 1.000000000000000000 ) ) ;
#115 = CARTESIAN_POINT ( 'NONE',  ( 0.0000000000000000000, 0.0000000000000000000, 0.2045181303125817900 ) ) ;
#116 = AXIS2_PLACEMENT_3D ( 'NONE', #115, #114, #2 ) ;
#117 = CIRCLE ( 'NONE', #116, 12.69999999999999800 ) ;
#118 = DIRECTION ( 'NONE',  ( 0.0000000000000000000, 1.000000000000000000, 0.0000000000000000000 ) ) ;
#119 =( GEOMETRIC_REPRESENTATION_CONTEXT ( 3 ) GLOBAL_UNCERTAINTY_ASSIGNED_CONTEXT ( ( #99 ) ) GLOBAL_UNIT_ASSIGNED_CONTEXT ( ( #104, #105, #70 ) ) REPRESENTATION_CONTEXT ( 'NONE', 'WORKASPACE' ) );
#120 = FACE_OUTER_BOUND ( 'NONE', #17, .T. ) ;
#121 = CARTESIAN_POINT ( 'NONE',  ( 0.0000000000000000000, 0.0000000000000000000, -1.794999999999999700 ) ) ;
#122 = AXIS2_PLACEMENT_3D ( 'NONE', #121, #90, #89 ) ;
#123 = CIRCLE ( 'NONE', #122, 12.69999999999999900 ) ;
#124 =( LENGTH_UNIT ( ) NAMED_UNIT ( * ) SI_UNIT ( .MILLI., .METRE. ) );
#125 = UNCERTAINTY_MEASURE_WITH_UNIT (LENGTH_MEASURE( 1.000000000000000100E-005 ), #146, 'distance_accuracy_value', 'NONE');
#126 = FACE_OUTER_BOUND ( 'NONE', #60, .T. ) ;
#127 = DIRECTION ( 'NONE',  ( 0.0000000000000000000, 0.0000000000000000000, -1.000000000000000000 ) ) ;
#128 = DIRECTION ( 'NONE',  ( 1.000000000000000000, 0.0000000000000000000, 0.0000000000000000000 ) ) ;
#129 = FILL_AREA_STYLE_COLOUR ( '', #130 ) ;
#130 = COLOUR_RGB ( '',0.9568627450980391500, 0.9490196078431372100, 0.9607843137254902200 ) ;
#131 = PRESENTATION_STYLE_ASSIGNMENT (( #132 ) ) ;
#132 = SURFACE_STYLE_USAGE ( .BOTH. , #133 ) ;
#133 = SURFACE_SIDE_STYLE ('',( #134 ) ) ;
#134 = SURFACE_STYLE_FILL_AREA ( #135 ) ;
#135 = FILL_AREA_STYLE ('',( #136 ) ) ;
#136 = FILL_AREA_STYLE_COLOUR ( '', #164 ) ;
#137 = MECHANICAL_DESIGN_GEOMETRIC_PRESENTATION_REPRESENTATION (  '', ( #175 ), #187 ) ;
#138 = UNCERTAINTY_MEASURE_WITH_UNIT (LENGTH_MEASURE( 1.000000000000000100E-005 ), #197, 'distance_accuracy_value', 'NONE');
#139 = CYLINDRICAL_SURFACE ( 'NONE', #204, 12.69999999999999900 ) ;
#140 = PRESENTATION_LAYER_ASSIGNMENT (  '', '', ( #175 ) ) ;
#141 =( GEOMETRIC_REPRESENTATION_CONTEXT ( 3 ) GLOBAL_UNCERTAINTY_ASSIGNED_CONTEXT ( ( #125 ) ) GLOBAL_UNIT_ASSIGNED_CONTEXT ( ( #146, #156, #166 ) ) REPRESENTATION_CONTEXT ( 'NONE', 'WORKASPACE' ) );
#142 =( LENGTH_UNIT ( ) NAMED_UNIT ( * ) SI_UNIT ( .MILLI., .METRE. ) );
#143 = SURFACE_STYLE_USAGE ( .BOTH. , #170 ) ;
#144 =( NAMED_UNIT ( * ) SI_UNIT ( $, .STERADIAN. ) SOLID_ANGLE_UNIT ( ) );
#145 =( LENGTH_UNIT ( ) NAMED_UNIT ( * ) SI_UNIT ( .MILLI., .METRE. ) );
#146 =( LENGTH_UNIT ( ) NAMED_UNIT ( * ) SI_UNIT ( .MILLI., .METRE. ) );
#147 = MECHANICAL_DESIGN_GEOMETRIC_PRESENTATION_REPRESENTATION (  '', ( #149 ), #141 ) ;
#148 = PRESENTATION_LAYER_ASSIGNMENT (  '', '', ( #149 ) ) ;
#149 = STYLED_ITEM ( 'NONE', ( #150 ), #48 ) ;
#150 = PRESENTATION_STYLE_ASSIGNMENT (( #151 ) ) ;
#151 = SURFACE_STYLE_USAGE ( .BOTH. , #157 ) ;
#152 = SURFACE_STYLE_FILL_AREA ( #174 ) ;
#153 = DIRECTION ( 'NONE',  ( 1.000000000000000000, 0.0000000000000000000, 0.0000000000000000000 ) ) ;
#154 = DIRECTION ( 'NONE',  ( -0.0000000000000000000, -0.0000000000000000000, 1.000000000000000000 ) ) ;
#155 =( GEOMETRIC_REPRESENTATION_CONTEXT ( 3 ) GLOBAL_UNCERTAINTY_ASSIGNED_CONTEXT ( ( #138 ) ) GLOBAL_UNIT_ASSIGNED_CONTEXT ( ( #197, #192, #181 ) ) REPRESENTATION_CONTEXT ( 'NONE', 'WORKASPACE' ) );
#156 =( NAMED_UNIT ( * ) PLANE_ANGLE_UNIT ( ) SI_UNIT ( $, .RADIAN. ) );
#157 = SURFACE_SIDE_STYLE ('',( #158 ) ) ;
#158 = SURFACE_STYLE_FILL_AREA ( #159 ) ;
#159 = FILL_AREA_STYLE ('',( #160 ) ) ;
#160 = FILL_AREA_STYLE_COLOUR ( '', #161 ) ;
#161 = COLOUR_RGB ( '',0.9568627450980391500, 0.9490196078431372100, 0.9607843137254902200 ) ;
#162 = CARTESIAN_POINT ( 'NONE',  ( 0.0000000000000000000, 0.0000000000000000000, 4.308132045400366600 ) ) ;
#163 = AXIS2_PLACEMENT_3D ( 'NONE', #162, #154, #153 ) ;
#164 = COLOUR_RGB ( '',0.9568627450980391500, 0.9490196078431372100, 0.9607843137254902200 ) ;
#165 = FACE_OUTER_BOUND ( 'NONE', #53, .T. ) ;
#166 =( NAMED_UNIT ( * ) SI_UNIT ( $, .STERADIAN. ) SOLID_ANGLE_UNIT ( ) );
#167 =( NAMED_UNIT ( * ) PLANE_ANGLE_UNIT ( ) SI_UNIT ( $, .RADIAN. ) );
#168 = UNCERTAINTY_MEASURE_WITH_UNIT (LENGTH_MEASURE( 1.000000000000000100E-005 ), #142, 'distance_accuracy_value', 'NONE');
#169 = CYLINDRICAL_SURFACE ( 'NONE', #163, 12.69999999999999900 ) ;
#170 = SURFACE_SIDE_STYLE ('',( #152 ) ) ;
#171 = FACE_OUTER_BOUND ( 'NONE', #25, .T. ) ;
#172 = CARTESIAN_POINT ( 'NONE',  ( 0.0000000000000000000, 12.70000000000001000, 0.2045181303125813700 ) ) ;
#173 = DIRECTION ( 'NONE',  ( -1.224606353822377300E-016, -1.000000000000000000, 0.0000000000000000000 ) ) ;
#174 = FILL_AREA_STYLE ('',( #196 ) ) ;
#175 = STYLED_ITEM ( 'NONE', ( #188 ), #33 ) ;
#176 = CARTESIAN_POINT ( 'NONE',  ( 0.0000000000000000000, 0.0000000000000000000, -49.70499999999999800 ) ) ;
#177 = AXIS2_PLACEMENT_3D ( 'NONE', #176, #128, #127 ) ;
#178 = CIRCLE ( 'NONE', #177, 51.50000000000000700 ) ;
#179 = PRESENTATION_STYLE_ASSIGNMENT (( #180 ) ) ;
#180 = SURFACE_STYLE_USAGE ( .BOTH. , #189 ) ;
#181 =( NAMED_UNIT ( * ) SI_UNIT ( $, .STERADIAN. ) SOLID_ANGLE_UNIT ( ) );
#182 =( NAMED_UNIT ( * ) PLANE_ANGLE_UNIT ( ) SI_UNIT ( $, .RADIAN. ) );
#183 = DIRECTION ( 'NONE',  ( -1.000000000000000000, 1.224606353822377300E-016, 0.0000000000000000000 ) ) ;
#184 = CARTESIAN_POINT ( 'NONE',  ( 0.0000000000000000000, 0.0000000000000000000, -49.70499999999999800 ) ) ;
#185 = AXIS2_PLACEMENT_3D ( 'NONE', #184, #183, #173 ) ;
#186 = CIRCLE ( 'NONE', #185, 51.50000000000000700 ) ;
#187 =( GEOMETRIC_REPRESENTATION_CONTEXT ( 3 ) GLOBAL_UNCERTAINTY_ASSIGNED_CONTEXT ( ( #168 ) ) GLOBAL_UNIT_ASSIGNED_CONTEXT ( ( #142, #182, #144 ) ) REPRESENTATION_CONTEXT ( 'NONE', 'WORKASPACE' ) );
#188 = PRESENTATION_STYLE_ASSIGNMENT (( #143 ) ) ;
#189 = SURFACE_SIDE_STYLE ('',( #190 ) ) ;
#190 = SURFACE_STYLE_FILL_AREA ( #191 ) ;
#191 = FILL_AREA_STYLE ('',( #129 ) ) ;
#192 =( NAMED_UNIT ( * ) PLANE_ANGLE_UNIT ( ) SI_UNIT ( $, .RADIAN. ) );
#193 = PRESENTATION_LAYER_ASSIGNMENT (  '', '', ( #194 ) ) ;
#194 = STYLED_ITEM ( 'NONE', ( #179 ), #34 ) ;
#195 = COLOUR_RGB ( '',0.7960784313725489700, 0.8235294117647058400, 0.9372549019607843100 ) ;
#196 = FILL_AREA_STYLE_COLOUR ( '', #195 ) ;
#197 =( LENGTH_UNIT ( ) NAMED_UNIT ( * ) SI_UNIT ( .MILLI., .METRE. ) );
#198 = MECHANICAL_DESIGN_GEOMETRIC_PRESENTATION_REPRESENTATION (  '', ( #200 ), #9 ) ;
#199 = PRESENTATION_LAYER_ASSIGNMENT (  '', '', ( #200 ) ) ;
#200 = STYLED_ITEM ( 'NONE', ( #131 ), #51 ) ;
#201 = DIRECTION ( 'NONE',  ( 1.000000000000000000, 0.0000000000000000000, 0.0000000000000000000 ) ) ;
#202 = DIRECTION ( 'NONE',  ( -0.0000000000000000000, -0.0000000000000000000, 1.000000000000000000 ) ) ;
#203 = CARTESIAN_POINT ( 'NONE',  ( 0.0000000000000000000, 0.0000000000000000000, 4.308132045400366600 ) ) ;
#204 = AXIS2_PLACEMENT_3D ( 'NONE', #203, #202, #201 ) ;
#205 = MECHANICAL_DESIGN_GEOMETRIC_PRESENTATION_REPRESENTATION (  '', ( #194 ), #155 ) ;
#206 =( NAMED_UNIT ( * ) SI_UNIT ( $, .STERADIAN. ) SOLID_ANGLE_UNIT ( ) );
#207 =( NAMED_UNIT ( * ) PLANE_ANGLE_UNIT ( ) SI_UNIT ( $, .RADIAN. ) );
#208 = CARTESIAN_POINT ( 'NONE',  ( 0.0000000000000000000, 3.153361361092621800E-015, 1.795000000000004800 ) ) ;
#209 = DIRECTION ( 'NONE',  ( -0.0000000000000000000, -0.0000000000000000000, 1.000000000000000000 ) ) ;
#210 = CARTESIAN_POINT ( 'NONE',  ( 12.69999999999999900, 0.0000000000000000000, -1.794999999999999700 ) ) ;
#211 = VECTOR ( 'NONE', #218, 1000.000000000000000 ) ;
#212 =( NAMED_UNIT ( * ) PLANE_ANGLE_UNIT ( ) SI_UNIT ( $, .RADIAN. ) );
#213 = AXIS2_PLACEMENT_3D ( 'NONE', #222, #221, #220 ) ;
#214 = PLANE ( 'NONE',  #240 ) ;
#215 = DIRECTION ( 'NONE',  ( 1.000000000000000000, 0.0000000000000000000, 0.0000000000000000000 ) ) ;
#216 = DIRECTION ( 'NONE',  ( 0.0000000000000000000, -0.0000000000000000000, 1.000000000000000000 ) ) ;
#217 = CARTESIAN_POINT ( 'NONE',  ( 0.0000000000000000000, 0.0000000000000000000, -1.794999999999999700 ) ) ;
#218 = DIRECTION ( 'NONE',  ( -0.0000000000000000000, -0.0000000000000000000, 1.000000000000000000 ) ) ;
#219 = UNCERTAINTY_MEASURE_WITH_UNIT (LENGTH_MEASURE( 1.000000000000000100E-005 ), #231, 'distance_accuracy_value', 'NONE');
#220 = DIRECTION ( 'NONE',  ( 1.000000000000000000, 0.0000000000000000000, 0.0000000000000000000 ) ) ;
#221 = DIRECTION ( 'NONE',  ( -0.0000000000000000000, -0.0000000000000000000, 1.000000000000000000 ) ) ;
#222 = CARTESIAN_POINT ( 'NONE',  ( 0.0000000000000000000, 0.0000000000000000000, 0.2045181303125817900 ) ) ;
#223 = AXIS2_PLACEMENT_3D ( 'NONE', #217, #209, #215 ) ;
#224 = LINE ( 'NONE', #230, #211 ) ;
#225 = CARTESIAN_POINT ( 'NONE',  ( 0.0000000000000000000, 6.594723013408496800E-016, -1.795000000000000200 ) ) ;
#226 = CIRCLE ( 'NONE', #223, 12.69999999999999900 ) ;
#227 =( LENGTH_UNIT ( ) NAMED_UNIT ( * ) SI_UNIT ( .MILLI., .METRE. ) );
#228 = CARTESIAN_POINT ( 'NONE',  ( 12.69999999999999800, 0.0000000000000000000, 0.2045181303125817900 ) ) ;
#229 = ADVANCED_BREP_SHAPE_REPRESENTATION ( '4435-E0W', ( #33, #47 ), #249 ) ;
#230 = CARTESIAN_POINT ( 'NONE',  ( 12.69999999999999900, 0.0000000000000000000, 4.308132045400366600 ) ) ;
#231 =( LENGTH_UNIT ( ) NAMED_UNIT ( * ) SI_UNIT ( .MILLI., .METRE. ) );
#232 =( GEOMETRIC_REPRESENTATION_CONTEXT ( 3 ) GLOBAL_UNCERTAINTY_ASSIGNED_CONTEXT ( ( #219 ) ) GLOBAL_UNIT_ASSIGNED_CONTEXT ( ( #231, #207, #206 ) ) REPRESENTATION_CONTEXT ( 'NONE', 'WORKASPACE' ) );
#233 = DIRECTION ( 'NONE',  ( 1.000000000000000000, 0.0000000000000000000, 0.0000000000000000000 ) ) ;
#234 = SURFACE_SIDE_STYLE ('',( #235 ) ) ;
#235 = SURFACE_STYLE_FILL_AREA ( #236 ) ;
#236 = FILL_AREA_STYLE ('',( #237 ) ) ;
#237 = FILL_AREA_STYLE_COLOUR ( '', #238 ) ;
#238 = COLOUR_RGB ( '',0.7960784313725489700, 0.8235294117647058400, 0.9372549019607843100 ) ;
#239 = CARTESIAN_POINT ( 'NONE',  ( -12.69999999999999900, 1.555250069354419100E-015, -1.794999999999999700 ) ) ;
#240 = AXIS2_PLACEMENT_3D ( 'NONE', #225, #216, #233 ) ;
#241 = MECHANICAL_DESIGN_GEOMETRIC_PRESENTATION_REPRESENTATION (  '', ( #243 ), #232 ) ;
#242 = PRESENTATION_LAYER_ASSIGNMENT (  '', '', ( #243 ) ) ;
#243 = STYLED_ITEM ( 'NONE', ( #244 ), #229 ) ;
#244 = PRESENTATION_STYLE_ASSIGNMENT (( #245 ) ) ;
#245 = SURFACE_STYLE_USAGE ( .BOTH. , #234 ) ;
#246 = UNCERTAINTY_MEASURE_WITH_UNIT (LENGTH_MEASURE( 1.000000000000000100E-005 ), #227, 'distance_accuracy_value', 'NONE');
#247 =( NAMED_UNIT ( * ) SI_UNIT ( $, .STERADIAN. ) SOLID_ANGLE_UNIT ( ) );
#248 = CIRCLE ( 'NONE', #213, 12.69999999999999800 ) ;
#249 =( GEOMETRIC_REPRESENTATION_CONTEXT ( 3 ) GLOBAL_UNCERTAINTY_ASSIGNED_CONTEXT ( ( #246 ) ) GLOBAL_UNIT_ASSIGNED_CONTEXT ( ( #227, #212, #247 ) ) REPRESENTATION_CONTEXT ( 'NONE', 'WORKASPACE' ) );
#250 = SHAPE_DEFINITION_REPRESENTATION ( #254, #229 ) ;
#251 = PRODUCT_RELATED_PRODUCT_CATEGORY ( 'part', '', ( #261 ) ) ;
#252 = PRODUCT_DEFINITION_FORMATION_WITH_SPECIFIED_SOURCE ( 'ANY', '', #261, .NOT_KNOWN. ) ;
#253 = PRODUCT_DEFINITION ( 'UNKNOWN', '', #252, #255 ) ;
#254 = PRODUCT_DEFINITION_SHAPE ( 'NONE', 'NONE',  #253 ) ;
#255 = PRODUCT_DEFINITION_CONTEXT ( 'detailed design', #257, 'design' ) ;
#256 = APPLICATION_PROTOCOL_DEFINITION ( 'draft international standard', 'automotive_design', 1998, #257 ) ;
#257 = APPLICATION_CONTEXT ( 'automotive_design' ) ;
#258 = APPLICATION_CONTEXT ( 'automotive_design' ) ;
#259 = PRODUCT_CONTEXT ( 'NONE', #258, 'mechanical' ) ;
#260 = APPLICATION_PROTOCOL_DEFINITION ( 'draft international standard', 'automotive_design', 1998, #258 ) ;
#261 = PRODUCT ( '4435-E0W', '4435-E0W', '', ( #259 ) ) ;
ENDSEC;
END-ISO-10303-21;
