ISO-10303-21;
HEADER;
FILE_DESCRIPTION (( 'STEP AP214' ),
    '1' );
FILE_NAME ('19308-E0W.STEP',
    '2009-12-21T17:12:07',
    ( ' ' ),
    ( ' ' ),
    'SwSTEP 2.0',
    'SolidWorks 2009',
    '' );
FILE_SCHEMA (( 'AUTOMOTIVE_DESIGN' ));
ENDSEC;

DATA;
#1 = CLOSED_SHELL ( 'NONE', ( #14, #37, #38, #48, #5 ) ) ;
#2 = EDGE_LOOP ( 'NONE', ( #6, #7 ) ) ;
#3 = VERTEX_POINT ( 'NONE', #83 ) ;
#4 = VERTEX_POINT ( 'NONE', #115 ) ;
#5 = ADVANCED_FACE ( 'NONE', ( #110 ), #89, .F. ) ;
#6 = ORIENTED_EDGE ( 'NONE', *, *, #20, .F. ) ;
#7 = ORIENTED_EDGE ( 'NONE', *, *, #23, .F. ) ;
#8 = VERTEX_POINT ( 'NONE', #111 ) ;
#9 = ORIENTED_EDGE ( 'NONE', *, *, #21, .F. ) ;
#10 = ORIENTED_EDGE ( 'NONE', *, *, #17, .F. ) ;
#11 = EDGE_LOOP ( 'NONE', ( #47, #41, #30, #25 ) ) ;
#12 = ORIENTED_EDGE ( 'NONE', *, *, #20, .T. ) ;
#13 = EDGE_CURVE ( 'NONE', #3, #4, #114, .T. ) ;
#14 = ADVANCED_FACE ( 'NONE', ( #108 ), #59, .T. ) ;
#15 = ORIENTED_EDGE ( 'NONE', *, *, #26, .F. ) ;
#16 = ORIENTED_EDGE ( 'NONE', *, *, #43, .T. ) ;
#17 = EDGE_CURVE ( 'NONE', #3, #8, #139, .T. ) ;
#18 = ORIENTED_EDGE ( 'NONE', *, *, #13, .F. ) ;
#19 = ORIENTED_EDGE ( 'NONE', *, *, #49, .T. ) ;
#20 = EDGE_CURVE ( 'NONE', #33, #34, #124, .T. ) ;
#21 = EDGE_CURVE ( 'NONE', #4, #45, #149, .T. ) ;
#22 = ORIENTED_EDGE ( 'NONE', *, *, #23, .T. ) ;
#23 = EDGE_CURVE ( 'NONE', #34, #33, #137, .T. ) ;
#24 = MANIFOLD_SOLID_BREP ( 'NONE', #1 ) ;
#25 = ORIENTED_EDGE ( 'NONE', *, *, #17, .T. ) ;
#26 = EDGE_CURVE ( 'NONE', #45, #32, #63, .T. ) ;
#27 = EDGE_LOOP ( 'NONE', ( #28, #22, #16, #15, #9 ) ) ;
#28 = ORIENTED_EDGE ( 'NONE', *, *, #40, .F. ) ;
#29 = ORIENTED_EDGE ( 'NONE', *, *, #21, .T. ) ;
#30 = ORIENTED_EDGE ( 'NONE', *, *, #42, .T. ) ;
#31 = ORIENTED_EDGE ( 'NONE', *, *, #42, .F. ) ;
#32 = VERTEX_POINT ( 'NONE', #184 ) ;
#33 = VERTEX_POINT ( 'NONE', #186 ) ;
#34 = VERTEX_POINT ( 'NONE', #185 ) ;
#35 = ORIENTED_EDGE ( 'NONE', *, *, #43, .F. ) ;
#36 = ORIENTED_EDGE ( 'NONE', *, *, #13, .T. ) ;
#37 = ADVANCED_FACE ( 'NONE', ( #181 ), #180, .T. ) ;
#38 = ADVANCED_FACE ( 'NONE', ( #157 ), #225, .T. ) ;
#39 = ORIENTED_EDGE ( 'NONE', *, *, #40, .T. ) ;
#40 = EDGE_CURVE ( 'NONE', #34, #4, #213, .T. ) ;
#41 = ORIENTED_EDGE ( 'NONE', *, *, #26, .T. ) ;
#42 = EDGE_CURVE ( 'NONE', #32, #3, #192, .T. ) ;
#43 = EDGE_CURVE ( 'NONE', #33, #32, #206, .T. ) ;
#44 = EDGE_LOOP ( 'NONE', ( #36, #29, #19, #10 ) ) ;
#45 = VERTEX_POINT ( 'NONE', #220 ) ;
#46 = EDGE_LOOP ( 'NONE', ( #12, #39, #18, #31, #35 ) ) ;
#47 = ORIENTED_EDGE ( 'NONE', *, *, #49, .F. ) ;
#48 = ADVANCED_FACE ( 'NONE', ( #219 ), #229, .T. ) ;
#49 = EDGE_CURVE ( 'NONE', #45, #8, #228, .T. ) ;
#50 = DIRECTION ( 'NONE',  ( -0.0000000000000000000, -0.0000000000000000000, 1.000000000000000000 ) ) ;
#51 =( NAMED_UNIT ( * ) SI_UNIT ( $, .STERADIAN. ) SOLID_ANGLE_UNIT ( ) );
#52 = CARTESIAN_POINT ( 'NONE',  ( 0.0000000000000000000, 0.0000000000000000000, 4.308132045400366600 ) ) ;
#53 =( GEOMETRIC_REPRESENTATION_CONTEXT ( 3 ) GLOBAL_UNCERTAINTY_ASSIGNED_CONTEXT ( ( #61 ) ) GLOBAL_UNIT_ASSIGNED_CONTEXT ( ( #154, #178, #51 ) ) REPRESENTATION_CONTEXT ( 'NONE', 'WORKASPACE' ) );
#54 = DIRECTION ( 'NONE',  ( -0.0000000000000000000, -0.0000000000000000000, 1.000000000000000000 ) ) ;
#55 =( GEOMETRIC_REPRESENTATION_CONTEXT ( 3 ) GLOBAL_UNCERTAINTY_ASSIGNED_CONTEXT ( ( #66 ) ) GLOBAL_UNIT_ASSIGNED_CONTEXT ( ( #88, #103, #57 ) ) REPRESENTATION_CONTEXT ( 'NONE', 'WORKASPACE' ) );
#56 = CARTESIAN_POINT ( 'NONE',  ( 0.0000000000000000000, 0.0000000000000000000, 0.05489114651108500200 ) ) ;
#57 =( NAMED_UNIT ( * ) SI_UNIT ( $, .STERADIAN. ) SOLID_ANGLE_UNIT ( ) );
#58 = AXIS2_PLACEMENT_3D ( 'NONE', #56, #50, #64 ) ;
#59 = CYLINDRICAL_SURFACE ( 'NONE', #62, 15.00000000000000000 ) ;
#60 =( GEOMETRIC_REPRESENTATION_CONTEXT ( 3 ) GLOBAL_UNCERTAINTY_ASSIGNED_CONTEXT ( ( #131 ) ) GLOBAL_UNIT_ASSIGNED_CONTEXT ( ( #120, #140, #132 ) ) REPRESENTATION_CONTEXT ( 'NONE', 'WORKASPACE' ) );
#61 = UNCERTAINTY_MEASURE_WITH_UNIT (LENGTH_MEASURE( 1.000000000000000100E-005 ), #154, 'distance_accuracy_value', 'NONE');
#62 = AXIS2_PLACEMENT_3D ( 'NONE', #52, #54, #65 ) ;
#63 = CIRCLE ( 'NONE', #58, 15.00000000000000200 ) ;
#64 = DIRECTION ( 'NONE',  ( 1.000000000000000000, 0.0000000000000000000, 0.0000000000000000000 ) ) ;
#65 = DIRECTION ( 'NONE',  ( 1.000000000000000000, 0.0000000000000000000, 0.0000000000000000000 ) ) ;
#66 = UNCERTAINTY_MEASURE_WITH_UNIT (LENGTH_MEASURE( 1.000000000000000100E-005 ), #88, 'distance_accuracy_value', 'NONE');
#67 = PRESENTATION_LAYER_ASSIGNMENT (  '', '', ( #70 ) ) ;
#68 = SURFACE_SIDE_STYLE ('',( #71 ) ) ;
#69 = PRESENTATION_STYLE_ASSIGNMENT (( #72 ) ) ;
#70 = STYLED_ITEM ( 'NONE', ( #69 ), #99 ) ;
#71 = SURFACE_STYLE_FILL_AREA ( #74 ) ;
#72 = SURFACE_STYLE_USAGE ( .BOTH. , #68 ) ;
#73 =( LENGTH_UNIT ( ) NAMED_UNIT ( * ) SI_UNIT ( .MILLI., .METRE. ) );
#74 = FILL_AREA_STYLE ('',( #214 ) ) ;
#75 =( GEOMETRIC_REPRESENTATION_CONTEXT ( 3 ) GLOBAL_UNCERTAINTY_ASSIGNED_CONTEXT ( ( #235 ) ) GLOBAL_UNIT_ASSIGNED_CONTEXT ( ( #239, #237, #241 ) ) REPRESENTATION_CONTEXT ( 'NONE', 'WORKASPACE' ) );
#76 = MECHANICAL_DESIGN_GEOMETRIC_PRESENTATION_REPRESENTATION (  '', ( #70 ), #243 ) ;
#77 = DIRECTION ( 'NONE',  ( -0.0000000000000000000, -0.0000000000000000000, 1.000000000000000000 ) ) ;
#78 = UNCERTAINTY_MEASURE_WITH_UNIT (LENGTH_MEASURE( 1.000000000000000100E-005 ), #80, 'distance_accuracy_value', 'NONE');
#79 = FILL_AREA_STYLE_COLOUR ( '', #97 ) ;
#80 =( LENGTH_UNIT ( ) NAMED_UNIT ( * ) SI_UNIT ( .MILLI., .METRE. ) );
#81 = SURFACE_STYLE_FILL_AREA ( #82 ) ;
#82 = FILL_AREA_STYLE ('',( #79 ) ) ;
#83 = CARTESIAN_POINT ( 'NONE',  ( 0.0000000000000000000, 15.00000000000002100, 0.05489114651109064400 ) ) ;
#84 = CARTESIAN_POINT ( 'NONE',  ( 0.0000000000000000000, 0.0000000000000000000, 0.05489114651108500200 ) ) ;
#85 = COLOUR_RGB ( '',0.9568627450980391500, 0.9490196078431372100, 0.9607843137254902200 ) ;
#86 = MECHANICAL_DESIGN_GEOMETRIC_PRESENTATION_REPRESENTATION (  '', ( #119 ), #55 ) ;
#87 = SURFACE_SIDE_STYLE ('',( #81 ) ) ;
#88 =( LENGTH_UNIT ( ) NAMED_UNIT ( * ) SI_UNIT ( .MILLI., .METRE. ) );
#89 = PLANE ( 'NONE',  #96 ) ;
#90 = MECHANICAL_DESIGN_GEOMETRIC_PRESENTATION_REPRESENTATION (  '', ( #104 ), #116 ) ;
#91 = PRESENTATION_STYLE_ASSIGNMENT (( #92 ) ) ;
#92 = SURFACE_STYLE_USAGE ( .BOTH. , #93 ) ;
#93 = SURFACE_SIDE_STYLE ('',( #100 ) ) ;
#94 = SURFACE_STYLE_USAGE ( .BOTH. , #87 ) ;
#95 = CARTESIAN_POINT ( 'NONE',  ( 0.0000000000000000000, 5.602759106099140700E-016, -1.524999999999999900 ) ) ;
#96 = AXIS2_PLACEMENT_3D ( 'NONE', #95, #107, #106 ) ;
#97 = COLOUR_RGB ( '',0.9568627450980391500, 0.9490196078431372100, 0.9607843137254902200 ) ;
#98 = PRESENTATION_LAYER_ASSIGNMENT (  '', '', ( #104 ) ) ;
#99 = ADVANCED_BREP_SHAPE_REPRESENTATION ( '19308-E0W', ( #24, #248 ), #75 ) ;
#100 = SURFACE_STYLE_FILL_AREA ( #101 ) ;
#101 = FILL_AREA_STYLE ('',( #102 ) ) ;
#102 = FILL_AREA_STYLE_COLOUR ( '', #85 ) ;
#103 =( NAMED_UNIT ( * ) PLANE_ANGLE_UNIT ( ) SI_UNIT ( $, .RADIAN. ) );
#104 = STYLED_ITEM ( 'NONE', ( #105 ), #5 ) ;
#105 = PRESENTATION_STYLE_ASSIGNMENT (( #94 ) ) ;
#106 = DIRECTION ( 'NONE',  ( 1.000000000000000000, 0.0000000000000000000, 0.0000000000000000000 ) ) ;
#107 = DIRECTION ( 'NONE',  ( 0.0000000000000000000, -0.0000000000000000000, 1.000000000000000000 ) ) ;
#108 = FACE_OUTER_BOUND ( 'NONE', #46, .T. ) ;
#109 = DIRECTION ( 'NONE',  ( 1.000000000000000000, 0.0000000000000000000, 0.0000000000000000000 ) ) ;
#110 = FACE_OUTER_BOUND ( 'NONE', #2, .T. ) ;
#111 = CARTESIAN_POINT ( 'NONE',  ( 0.0000000000000000000, 4.730654344815844000E-015, 1.524999999999998600 ) ) ;
#112 =( NAMED_UNIT ( * ) PLANE_ANGLE_UNIT ( ) SI_UNIT ( $, .RADIAN. ) );
#113 = AXIS2_PLACEMENT_3D ( 'NONE', #84, #77, #109 ) ;
#114 = CIRCLE ( 'NONE', #113, 15.00000000000000200 ) ;
#115 = CARTESIAN_POINT ( 'NONE',  ( -15.00000000000000400, 1.836909530733566300E-015, 0.05489114651108500200 ) ) ;
#116 =( GEOMETRIC_REPRESENTATION_CONTEXT ( 3 ) GLOBAL_UNCERTAINTY_ASSIGNED_CONTEXT ( ( #78 ) ) GLOBAL_UNIT_ASSIGNED_CONTEXT ( ( #80, #112, #117 ) ) REPRESENTATION_CONTEXT ( 'NONE', 'WORKASPACE' ) );
#117 =( NAMED_UNIT ( * ) SI_UNIT ( $, .STERADIAN. ) SOLID_ANGLE_UNIT ( ) );
#118 = PRESENTATION_LAYER_ASSIGNMENT (  '', '', ( #119 ) ) ;
#119 = STYLED_ITEM ( 'NONE', ( #91 ), #14 ) ;
#120 =( LENGTH_UNIT ( ) NAMED_UNIT ( * ) SI_UNIT ( .MILLI., .METRE. ) );
#121 = MECHANICAL_DESIGN_GEOMETRIC_PRESENTATION_REPRESENTATION (  '', ( #125 ), #60 ) ;
#122 = PRESENTATION_LAYER_ASSIGNMENT (  '', '', ( #125 ) ) ;
#123 = AXIS2_PLACEMENT_3D ( 'NONE', #136, #135, #134 ) ;
#124 = CIRCLE ( 'NONE', #123, 15.00000000000000000 ) ;
#125 = STYLED_ITEM ( 'NONE', ( #126 ), #24 ) ;
#126 = PRESENTATION_STYLE_ASSIGNMENT (( #127 ) ) ;
#127 = SURFACE_STYLE_USAGE ( .BOTH. , #128 ) ;
#128 = SURFACE_SIDE_STYLE ('',( #129 ) ) ;
#129 = SURFACE_STYLE_FILL_AREA ( #144 ) ;
#130 = DIRECTION ( 'NONE',  ( 0.0000000000000000000, 0.0000000000000000000, -1.000000000000000000 ) ) ;
#131 = UNCERTAINTY_MEASURE_WITH_UNIT (LENGTH_MEASURE( 1.000000000000000100E-005 ), #120, 'distance_accuracy_value', 'NONE');
#132 =( NAMED_UNIT ( * ) SI_UNIT ( $, .STERADIAN. ) SOLID_ANGLE_UNIT ( ) );
#133 = CARTESIAN_POINT ( 'NONE',  ( 0.0000000000000000000, 0.0000000000000000000, -75.73500000000001400 ) ) ;
#134 = DIRECTION ( 'NONE',  ( 1.000000000000000000, 0.0000000000000000000, 0.0000000000000000000 ) ) ;
#135 = DIRECTION ( 'NONE',  ( -0.0000000000000000000, -0.0000000000000000000, 1.000000000000000000 ) ) ;
#136 = CARTESIAN_POINT ( 'NONE',  ( 0.0000000000000000000, 0.0000000000000000000, -1.525000000000000400 ) ) ;
#137 = CIRCLE ( 'NONE', #148, 15.00000000000000000 ) ;
#138 = COLOUR_RGB ( '',0.7960784313725489700, 0.8235294117647058400, 0.9372549019607843100 ) ;
#139 = CIRCLE ( 'NONE', #141, 77.26000000000000500 ) ;
#140 =( NAMED_UNIT ( * ) PLANE_ANGLE_UNIT ( ) SI_UNIT ( $, .RADIAN. ) );
#141 = AXIS2_PLACEMENT_3D ( 'NONE', #133, #142, #130 ) ;
#142 = DIRECTION ( 'NONE',  ( 1.000000000000000000, 0.0000000000000000000, 0.0000000000000000000 ) ) ;
#143 = DIRECTION ( 'NONE',  ( 1.000000000000000000, 0.0000000000000000000, 0.0000000000000000000 ) ) ;
#144 = FILL_AREA_STYLE ('',( #145 ) ) ;
#145 = FILL_AREA_STYLE_COLOUR ( '', #138 ) ;
#146 = DIRECTION ( 'NONE',  ( 1.000000000000000000, 0.0000000000000000000, 0.0000000000000000000 ) ) ;
#147 = DIRECTION ( 'NONE',  ( -0.0000000000000000000, -0.0000000000000000000, 1.000000000000000000 ) ) ;
#148 = AXIS2_PLACEMENT_3D ( 'NONE', #150, #147, #146 ) ;
#149 = CIRCLE ( 'NONE', #153, 15.00000000000000200 ) ;
#150 = CARTESIAN_POINT ( 'NONE',  ( 0.0000000000000000000, 0.0000000000000000000, -1.525000000000000400 ) ) ;
#151 = DIRECTION ( 'NONE',  ( -0.0000000000000000000, -0.0000000000000000000, 1.000000000000000000 ) ) ;
#152 = CARTESIAN_POINT ( 'NONE',  ( 0.0000000000000000000, 0.0000000000000000000, 0.05489114651108500200 ) ) ;
#153 = AXIS2_PLACEMENT_3D ( 'NONE', #152, #151, #143 ) ;
#154 =( LENGTH_UNIT ( ) NAMED_UNIT ( * ) SI_UNIT ( .MILLI., .METRE. ) );
#155 = MECHANICAL_DESIGN_GEOMETRIC_PRESENTATION_REPRESENTATION (  '', ( #162 ), #53 ) ;
#156 = COLOUR_RGB ( '',0.9568627450980391500, 0.9490196078431372100, 0.9607843137254902200 ) ;
#157 = FACE_OUTER_BOUND ( 'NONE', #11, .T. ) ;
#158 = SURFACE_STYLE_FILL_AREA ( #175 ) ;
#159 =( GEOMETRIC_REPRESENTATION_CONTEXT ( 3 ) GLOBAL_UNCERTAINTY_ASSIGNED_CONTEXT ( ( #176 ) ) GLOBAL_UNIT_ASSIGNED_CONTEXT ( ( #173, #169, #183 ) ) REPRESENTATION_CONTEXT ( 'NONE', 'WORKASPACE' ) );
#160 = PRESENTATION_LAYER_ASSIGNMENT (  '', '', ( #168 ) ) ;
#161 = PRESENTATION_LAYER_ASSIGNMENT (  '', '', ( #162 ) ) ;
#162 = STYLED_ITEM ( 'NONE', ( #163 ), #38 ) ;
#163 = PRESENTATION_STYLE_ASSIGNMENT (( #164 ) ) ;
#164 = SURFACE_STYLE_USAGE ( .BOTH. , #165 ) ;
#165 = SURFACE_SIDE_STYLE ('',( #187 ) ) ;
#166 = DIRECTION ( 'NONE',  ( 0.0000000000000000000, 1.000000000000000000, 0.0000000000000000000 ) ) ;
#167 = DIRECTION ( 'NONE',  ( -1.000000000000000000, 0.0000000000000000000, 0.0000000000000000000 ) ) ;
#168 = STYLED_ITEM ( 'NONE', ( #170 ), #37 ) ;
#169 =( NAMED_UNIT ( * ) PLANE_ANGLE_UNIT ( ) SI_UNIT ( $, .RADIAN. ) );
#170 = PRESENTATION_STYLE_ASSIGNMENT (( #182 ) ) ;
#171 = CARTESIAN_POINT ( 'NONE',  ( 0.0000000000000000000, 0.0000000000000000000, -75.73500000000001400 ) ) ;
#172 = AXIS2_PLACEMENT_3D ( 'NONE', #171, #167, #166 ) ;
#173 =( LENGTH_UNIT ( ) NAMED_UNIT ( * ) SI_UNIT ( .MILLI., .METRE. ) );
#174 = FILL_AREA_STYLE_COLOUR ( '', #179 ) ;
#175 = FILL_AREA_STYLE ('',( #174 ) ) ;
#176 = UNCERTAINTY_MEASURE_WITH_UNIT (LENGTH_MEASURE( 1.000000000000000100E-005 ), #173, 'distance_accuracy_value', 'NONE');
#177 = SURFACE_SIDE_STYLE ('',( #158 ) ) ;
#178 =( NAMED_UNIT ( * ) PLANE_ANGLE_UNIT ( ) SI_UNIT ( $, .RADIAN. ) );
#179 = COLOUR_RGB ( '',0.9568627450980391500, 0.9490196078431372100, 0.9607843137254902200 ) ;
#180 = SPHERICAL_SURFACE ( 'NONE', #172, 77.26000000000000500 ) ;
#181 = FACE_OUTER_BOUND ( 'NONE', #44, .T. ) ;
#182 = SURFACE_STYLE_USAGE ( .BOTH. , #177 ) ;
#183 =( NAMED_UNIT ( * ) SI_UNIT ( $, .STERADIAN. ) SOLID_ANGLE_UNIT ( ) );
#184 = CARTESIAN_POINT ( 'NONE',  ( 15.00000000000000400, 0.0000000000000000000, 0.05489114651108500200 ) ) ;
#185 = CARTESIAN_POINT ( 'NONE',  ( -15.00000000000000000, 1.836909530733565900E-015, -1.525000000000000400 ) ) ;
#186 = CARTESIAN_POINT ( 'NONE',  ( 15.00000000000000000, 0.0000000000000000000, -1.525000000000000400 ) ) ;
#187 = SURFACE_STYLE_FILL_AREA ( #188 ) ;
#188 = FILL_AREA_STYLE ('',( #189 ) ) ;
#189 = FILL_AREA_STYLE_COLOUR ( '', #156 ) ;
#190 = MECHANICAL_DESIGN_GEOMETRIC_PRESENTATION_REPRESENTATION (  '', ( #168 ), #159 ) ;
#191 = CARTESIAN_POINT ( 'NONE',  ( 0.0000000000000000000, 0.0000000000000000000, 0.05489114651108500200 ) ) ;
#192 = CIRCLE ( 'NONE', #197, 15.00000000000000200 ) ;
#193 = FILL_AREA_STYLE_COLOUR ( '', #227 ) ;
#194 = DIRECTION ( 'NONE',  ( 1.000000000000000000, 0.0000000000000000000, 0.0000000000000000000 ) ) ;
#195 =( LENGTH_UNIT ( ) NAMED_UNIT ( * ) SI_UNIT ( .MILLI., .METRE. ) );
#196 = DIRECTION ( 'NONE',  ( -0.0000000000000000000, -0.0000000000000000000, 1.000000000000000000 ) ) ;
#197 = AXIS2_PLACEMENT_3D ( 'NONE', #191, #223, #194 ) ;
#198 = DIRECTION ( 'NONE',  ( -0.0000000000000000000, -0.0000000000000000000, 1.000000000000000000 ) ) ;
#199 = CARTESIAN_POINT ( 'NONE',  ( 15.00000000000000000, 0.0000000000000000000, 4.308132045400366600 ) ) ;
#200 = MECHANICAL_DESIGN_GEOMETRIC_PRESENTATION_REPRESENTATION (  '', ( #203 ), #222 ) ;
#201 = PRESENTATION_LAYER_ASSIGNMENT (  '', '', ( #203 ) ) ;
#202 = DIRECTION ( 'NONE',  ( 0.0000000000000000000, 1.000000000000000000, 0.0000000000000000000 ) ) ;
#203 = STYLED_ITEM ( 'NONE', ( #204 ), #48 ) ;
#204 = PRESENTATION_STYLE_ASSIGNMENT (( #208 ) ) ;
#205 = VECTOR ( 'NONE', #196, 1000.000000000000000 ) ;
#206 = LINE ( 'NONE', #199, #211 ) ;
#207 = UNCERTAINTY_MEASURE_WITH_UNIT (LENGTH_MEASURE( 1.000000000000000100E-005 ), #195, 'distance_accuracy_value', 'NONE');
#208 = SURFACE_STYLE_USAGE ( .BOTH. , #209 ) ;
#209 = SURFACE_SIDE_STYLE ('',( #210 ) ) ;
#210 = SURFACE_STYLE_FILL_AREA ( #226 ) ;
#211 = VECTOR ( 'NONE', #198, 1000.000000000000000 ) ;
#212 = CARTESIAN_POINT ( 'NONE',  ( -15.00000000000000000, 1.836909530733565900E-015, 4.308132045400366600 ) ) ;
#213 = LINE ( 'NONE', #212, #205 ) ;
#214 = FILL_AREA_STYLE_COLOUR ( '', #215 ) ;
#215 = COLOUR_RGB ( '',0.7960784313725489700, 0.8235294117647058400, 0.9372549019607843100 ) ;
#216 =( NAMED_UNIT ( * ) PLANE_ANGLE_UNIT ( ) SI_UNIT ( $, .RADIAN. ) );
#217 =( NAMED_UNIT ( * ) SI_UNIT ( $, .STERADIAN. ) SOLID_ANGLE_UNIT ( ) );
#218 = CARTESIAN_POINT ( 'NONE',  ( 0.0000000000000000000, 0.0000000000000000000, -75.73500000000001400 ) ) ;
#219 = FACE_OUTER_BOUND ( 'NONE', #27, .T. ) ;
#220 = CARTESIAN_POINT ( 'NONE',  ( -1.836909530733568600E-015, -15.00000000000002100, 0.05489114651109064400 ) ) ;
#221 = AXIS2_PLACEMENT_3D ( 'NONE', #218, #224, #202 ) ;
#222 =( GEOMETRIC_REPRESENTATION_CONTEXT ( 3 ) GLOBAL_UNCERTAINTY_ASSIGNED_CONTEXT ( ( #207 ) ) GLOBAL_UNIT_ASSIGNED_CONTEXT ( ( #195, #216, #217 ) ) REPRESENTATION_CONTEXT ( 'NONE', 'WORKASPACE' ) );
#223 = DIRECTION ( 'NONE',  ( -0.0000000000000000000, -0.0000000000000000000, 1.000000000000000000 ) ) ;
#224 = DIRECTION ( 'NONE',  ( -1.000000000000000000, 0.0000000000000000000, 0.0000000000000000000 ) ) ;
#225 = SPHERICAL_SURFACE ( 'NONE', #221, 77.26000000000000500 ) ;
#226 = FILL_AREA_STYLE ('',( #193 ) ) ;
#227 = COLOUR_RGB ( '',0.9568627450980391500, 0.9490196078431372100, 0.9607843137254902200 ) ;
#228 = CIRCLE ( 'NONE', #232, 77.26000000000000500 ) ;
#229 = CYLINDRICAL_SURFACE ( 'NONE', #238, 15.00000000000000000 ) ;
#230 = DIRECTION ( 'NONE',  ( -1.000000000000000000, 1.224606353822377300E-016, 0.0000000000000000000 ) ) ;
#231 = CARTESIAN_POINT ( 'NONE',  ( 0.0000000000000000000, 0.0000000000000000000, 4.308132045400366600 ) ) ;
#232 = AXIS2_PLACEMENT_3D ( 'NONE', #234, #230, #240 ) ;
#233 = DIRECTION ( 'NONE',  ( -0.0000000000000000000, -0.0000000000000000000, 1.000000000000000000 ) ) ;
#234 = CARTESIAN_POINT ( 'NONE',  ( 0.0000000000000000000, 0.0000000000000000000, -75.73500000000001400 ) ) ;
#235 = UNCERTAINTY_MEASURE_WITH_UNIT (LENGTH_MEASURE( 1.000000000000000100E-005 ), #239, 'distance_accuracy_value', 'NONE');
#236 = DIRECTION ( 'NONE',  ( 1.000000000000000000, 0.0000000000000000000, 0.0000000000000000000 ) ) ;
#237 =( NAMED_UNIT ( * ) PLANE_ANGLE_UNIT ( ) SI_UNIT ( $, .RADIAN. ) );
#238 = AXIS2_PLACEMENT_3D ( 'NONE', #231, #233, #236 ) ;
#239 =( LENGTH_UNIT ( ) NAMED_UNIT ( * ) SI_UNIT ( .MILLI., .METRE. ) );
#240 = DIRECTION ( 'NONE',  ( -1.224606353822377300E-016, -1.000000000000000000, 0.0000000000000000000 ) ) ;
#241 =( NAMED_UNIT ( * ) SI_UNIT ( $, .STERADIAN. ) SOLID_ANGLE_UNIT ( ) );
#242 =( NAMED_UNIT ( * ) SI_UNIT ( $, .STERADIAN. ) SOLID_ANGLE_UNIT ( ) );
#243 =( GEOMETRIC_REPRESENTATION_CONTEXT ( 3 ) GLOBAL_UNCERTAINTY_ASSIGNED_CONTEXT ( ( #244 ) ) GLOBAL_UNIT_ASSIGNED_CONTEXT ( ( #73, #245, #242 ) ) REPRESENTATION_CONTEXT ( 'NONE', 'WORKASPACE' ) );
#244 = UNCERTAINTY_MEASURE_WITH_UNIT (LENGTH_MEASURE( 1.000000000000000100E-005 ), #73, 'distance_accuracy_value', 'NONE');
#245 =( NAMED_UNIT ( * ) PLANE_ANGLE_UNIT ( ) SI_UNIT ( $, .RADIAN. ) );
#246 = DIRECTION ( 'NONE',  ( 0.0000000000000000000, 0.0000000000000000000, 1.000000000000000000 ) ) ;
#247 = CARTESIAN_POINT ( 'NONE',  ( 0.0000000000000000000, 0.0000000000000000000, 0.0000000000000000000 ) ) ;
#248 = AXIS2_PLACEMENT_3D ( 'NONE', #247, #246, #249 ) ;
#249 = DIRECTION ( 'NONE',  ( 1.000000000000000000, 0.0000000000000000000, 0.0000000000000000000 ) ) ;
#250 = PRODUCT_CONTEXT ( 'NONE', #252, 'mechanical' ) ;
#251 = APPLICATION_PROTOCOL_DEFINITION ( 'draft international standard', 'automotive_design', 1998, #252 ) ;
#252 = APPLICATION_CONTEXT ( 'automotive_design' ) ;
#253 = PRODUCT_DEFINITION ( 'UNKNOWN', '', #256, #260 ) ;
#254 = APPLICATION_CONTEXT ( 'automotive_design' ) ;
#255 = APPLICATION_PROTOCOL_DEFINITION ( 'draft international standard', 'automotive_design', 1998, #254 ) ;
#256 = PRODUCT_DEFINITION_FORMATION_WITH_SPECIFIED_SOURCE ( 'ANY', '', #258, .NOT_KNOWN. ) ;
#257 = SHAPE_DEFINITION_REPRESENTATION ( #261, #99 ) ;
#258 = PRODUCT ( '19308-E0W', '19308-E0W', '', ( #250 ) ) ;
#259 = PRODUCT_RELATED_PRODUCT_CATEGORY ( 'part', '', ( #258 ) ) ;
#260 = PRODUCT_DEFINITION_CONTEXT ( 'detailed design', #254, 'design' ) ;
#261 = PRODUCT_DEFINITION_SHAPE ( 'NONE', 'NONE',  #253 ) ;
ENDSEC;
END-ISO-10303-21;
