ISO-10303-21;
HEADER;
FILE_DESCRIPTION (( 'STEP AP203' ),
    '1' );
FILE_NAME ('Web Model 39242_39268.step',
    '2018-07-25T17:14:58',
    ( '' ),
    ( '' ),
    'SwSTEP 2.0',
    'SolidWorks 2016',
    '' );
FILE_SCHEMA (( 'CONFIG_CONTROL_DESIGN' ));
ENDSEC;

DATA;
#1 = CALENDAR_DATE ( 2018, 25, 7 ) ;
#2 = CARTESIAN_POINT ( 'NONE',  ( -19.05000000000000100, 0.0000000000000000000, 0.5000000000000000000 ) ) ;
#3 = CARTESIAN_POINT ( 'NONE',  ( 0.0000000000000000000, 0.0000000000000000000, 0.5000000000000000000 ) ) ;
#4 = COORDINATED_UNIVERSAL_TIME_OFFSET ( 5, 0, .BEHIND. ) ;
#5 = CARTESIAN_POINT ( 'NONE',  ( 19.05000000000000100, 2.332952152375708000E-015, 0.5000000000000000000 ) ) ;
#6 = APPROVAL_STATUS ( 'not_yet_approved' ) ;
#7 = APPLICATION_PROTOCOL_DEFINITION ( 'international standard', 'config_control_design', 1994, #132 ) ;
#8 = CC_DESIGN_PERSON_AND_ORGANIZATION_ASSIGNMENT ( #166, #168, ( #77 ) ) ;
#9 = MECHANICAL_CONTEXT ( 'NONE', #39, 'mechanical' ) ;
#10 = DESIGN_CONTEXT ( 'detailed design', #132, 'design' ) ;
#11 = PERSON_AND_ORGANIZATION_ROLE ( 'creator' ) ;
#12 = APPROVAL_DATE_TIME ( #71, #159 ) ;
#13 = EDGE_CURVE ( 'NONE', #81, #85, #58, .T. ) ;
#14 = VERTEX_POINT ( 'NONE', #89 ) ;
#15 = CC_DESIGN_PERSON_AND_ORGANIZATION_ASSIGNMENT ( #32, #96, ( #66 ) ) ;
#16 = DIRECTION ( 'NONE',  ( 1.000000000000000000, 0.0000000000000000000, -0.0000000000000000000 ) ) ;
#17 = COORDINATED_UNIVERSAL_TIME_OFFSET ( 5, 0, .BEHIND. ) ;
#18 = DIRECTION ( 'NONE',  ( -0.0000000000000000000, -0.0000000000000000000, -1.000000000000000000 ) ) ;
#19 = PRODUCT_DEFINITION ( 'UNKNOWN', '', #136, #10 ) ;
#20 = FACE_OUTER_BOUND ( 'NONE', #118, .T. ) ;
#21 = DATE_TIME_ROLE ( 'creation_date' ) ;
#22 = PERSON_AND_ORGANIZATION ( #67, #149 ) ;
#23 = CC_DESIGN_DATE_AND_TIME_ASSIGNMENT ( #74, #50, ( #66 ) ) ;
#24 = PRODUCT_DEFINITION_SHAPE ( 'NONE', 'NONE',  #19 ) ;
#25 = CC_DESIGN_PERSON_AND_ORGANIZATION_ASSIGNMENT ( #80, #145, ( #136 ) ) ;
#26 = EDGE_CURVE ( 'NONE', #81, #135, #161, .T. ) ;
#27 = SHAPE_DEFINITION_REPRESENTATION ( #24, #120 ) ;
#28 = DIRECTION ( 'NONE',  ( 0.0000000000000000000, 0.0000000000000000000, 1.000000000000000000 ) ) ;
#29 = APPROVAL ( #108, 'UNSPECIFIED' ) ;
#30 = CARTESIAN_POINT ( 'NONE',  ( 0.0000000000000000000, 0.0000000000000000000, -0.5000000000000000000 ) ) ;
#31 = DIRECTION ( 'NONE',  ( 1.000000000000000000, 0.0000000000000000000, 0.0000000000000000000 ) ) ;
#32 = PERSON_AND_ORGANIZATION ( #67, #149 ) ;
#33 = ORIENTED_EDGE ( 'NONE', *, *, #26, .T. ) ;
#34 = DIRECTION ( 'NONE',  ( 0.0000000000000000000, 0.0000000000000000000, 1.000000000000000000 ) ) ;
#35 = DIRECTION ( 'NONE',  ( 1.000000000000000000, 0.0000000000000000000, 0.0000000000000000000 ) ) ;
#36 =( LENGTH_UNIT ( ) NAMED_UNIT ( * ) SI_UNIT ( .MILLI., .METRE. ) );
#37 = CC_DESIGN_PERSON_AND_ORGANIZATION_ASSIGNMENT ( #82, #110, ( #136 ) ) ;
#38 = APPROVAL_ROLE ( '' ) ;
#39 = APPLICATION_CONTEXT ( 'configuration controlled 3d designs of mechanical parts and assemblies' ) ;
#40 = PERSON_AND_ORGANIZATION ( #67, #149 ) ;
#41 = FACE_OUTER_BOUND ( 'NONE', #125, .T. ) ;
#42 = APPROVAL_DATE_TIME ( #57, #29 ) ;
#43 = CARTESIAN_POINT ( 'NONE',  ( 19.05000000000000100, 2.332952152375708000E-015, -0.5000000000000000000 ) ) ;
#44 = CALENDAR_DATE ( 2018, 25, 7 ) ;
#45 = ORIENTED_EDGE ( 'NONE', *, *, #151, .F. ) ;
#46 = CARTESIAN_POINT ( 'NONE',  ( 0.0000000000000000000, 0.0000000000000000000, -0.5000000000000000000 ) ) ;
#47 = AXIS2_PLACEMENT_3D ( 'NONE', #107, #165, #139 ) ;
#48 = DIRECTION ( 'NONE',  ( 0.0000000000000000000, 0.0000000000000000000, 1.000000000000000000 ) ) ;
#49 = ORIENTED_EDGE ( 'NONE', *, *, #140, .F. ) ;
#50 = DATE_TIME_ROLE ( 'classification_date' ) ;
#51 = AXIS2_PLACEMENT_3D ( 'NONE', #127, #18, #75 ) ;
#52 = DATE_AND_TIME ( #44, #116 ) ;
#53 = FACE_OUTER_BOUND ( 'NONE', #130, .T. ) ;
#54 = MANIFOLD_SOLID_BREP ( 'Boss-Extrude1', #154 ) ;
#55 = CIRCLE ( 'NONE', #123, 19.05000000000000100 ) ;
#56 = CC_DESIGN_APPROVAL ( #98, ( #19 ) ) ;
#57 = DATE_AND_TIME ( #60, #160 ) ;
#58 = LINE ( 'NONE', #5, #152 ) ;
#59 = APPROVAL_DATE_TIME ( #102, #98 ) ;
#60 = CALENDAR_DATE ( 2018, 25, 7 ) ;
#61 = DIRECTION ( 'NONE',  ( -0.0000000000000000000, -0.0000000000000000000, -1.000000000000000000 ) ) ;
#62 = AXIS2_PLACEMENT_3D ( 'NONE', #30, #28, #138 ) ;
#63 = CARTESIAN_POINT ( 'NONE',  ( -19.05000000000000100, 0.0000000000000000000, 0.5000000000000000000 ) ) ;
#64 = ADVANCED_FACE ( 'NONE', ( #20 ), #155, .F. ) ;
#65 = DIRECTION ( 'NONE',  ( -0.0000000000000000000, -0.0000000000000000000, -1.000000000000000000 ) ) ;
#66 = SECURITY_CLASSIFICATION ( '', '', #92 ) ;
#67 = PERSON ( 'UNSPECIFIED', 'UNSPECIFIED', 'UNSPECIFIED', ('UNSPECIFIED'), ('UNSPECIFIED'), ('UNSPECIFIED') ) ;
#68 = APPROVAL_ROLE ( '' ) ;
#69 = ORIENTED_EDGE ( 'NONE', *, *, #13, .F. ) ;
#70 = AXIS2_PLACEMENT_3D ( 'NONE', #3, #48, #104 ) ;
#71 = DATE_AND_TIME ( #1, #121 ) ;
#72 = ADVANCED_FACE ( 'NONE', ( #91 ), #119, .T. ) ;
#73 = ADVANCED_FACE ( 'NONE', ( #53 ), #88, .T. ) ;
#74 = DATE_AND_TIME ( #100, #114 ) ;
#75 = DIRECTION ( 'NONE',  ( -1.000000000000000000, 0.0000000000000000000, 0.0000000000000000000 ) ) ;
#76 = EDGE_CURVE ( 'NONE', #135, #81, #55, .T. ) ;
#77 = PRODUCT ( 'Web Model 39242_39268', 'Web Model 39242_39268', '', ( #9 ) ) ;
#78 = CC_DESIGN_SECURITY_CLASSIFICATION ( #66, ( #136 ) ) ;
#79 =( GEOMETRIC_REPRESENTATION_CONTEXT ( 3 ) GLOBAL_UNCERTAINTY_ASSIGNED_CONTEXT ( ( #134 ) ) GLOBAL_UNIT_ASSIGNED_CONTEXT ( ( #36, #158, #111 ) ) REPRESENTATION_CONTEXT ( 'NONE', 'WORKASPACE' ) );
#80 = PERSON_AND_ORGANIZATION ( #67, #149 ) ;
#81 = VERTEX_POINT ( 'NONE', #157 ) ;
#82 = PERSON_AND_ORGANIZATION ( #67, #149 ) ;
#83 = PRODUCT_RELATED_PRODUCT_CATEGORY ( 'detail', '', ( #77 ) ) ;
#84 = AXIS2_PLACEMENT_3D ( 'NONE', #156, #34, #142 ) ;
#85 = VERTEX_POINT ( 'NONE', #43 ) ;
#86 = AXIS2_PLACEMENT_3D ( 'NONE', #117, #126, #93 ) ;
#87 = ORIENTED_EDGE ( 'NONE', *, *, #26, .F. ) ;
#88 = CYLINDRICAL_SURFACE ( 'NONE', #47, 19.05000000000000100 ) ;
#89 = CARTESIAN_POINT ( 'NONE',  ( -19.05000000000000100, 0.0000000000000000000, -0.5000000000000000000 ) ) ;
#90 = CARTESIAN_POINT ( 'NONE',  ( 0.0000000000000000000, 0.0000000000000000000, 0.5000000000000000000 ) ) ;
#91 = FACE_OUTER_BOUND ( 'NONE', #97, .T. ) ;
#92 = SECURITY_CLASSIFICATION_LEVEL ( 'unclassified' ) ;
#93 = DIRECTION ( 'NONE',  ( 1.000000000000000000, 0.0000000000000000000, 0.0000000000000000000 ) ) ;
#94 = APPLICATION_PROTOCOL_DEFINITION ( 'international standard', 'config_control_design', 1994, #39 ) ;
#95 = CYLINDRICAL_SURFACE ( 'NONE', #51, 19.05000000000000100 ) ;
#96 = PERSON_AND_ORGANIZATION_ROLE ( 'classification_officer' ) ;
#97 = EDGE_LOOP ( 'NONE', ( #122, #33 ) ) ;
#98 = APPROVAL ( #6, 'UNSPECIFIED' ) ;
#99 = LOCAL_TIME ( 13, 14, 58.00000000000000000, #150 ) ;
#100 = CALENDAR_DATE ( 2018, 25, 7 ) ;
#101 = ORIENTED_EDGE ( 'NONE', *, *, #151, .T. ) ;
#102 = DATE_AND_TIME ( #141, #99 ) ;
#103 = ORIENTED_EDGE ( 'NONE', *, *, #148, .T. ) ;
#104 = DIRECTION ( 'NONE',  ( 1.000000000000000000, 0.0000000000000000000, 0.0000000000000000000 ) ) ;
#105 = CARTESIAN_POINT ( 'NONE',  ( 0.0000000000000000000, 0.0000000000000000000, 0.5000000000000000000 ) ) ;
#106 = ORIENTED_EDGE ( 'NONE', *, *, #76, .F. ) ;
#107 = CARTESIAN_POINT ( 'NONE',  ( 0.0000000000000000000, 0.0000000000000000000, 0.5000000000000000000 ) ) ;
#108 = APPROVAL_STATUS ( 'not_yet_approved' ) ;
#109 = APPROVAL_STATUS ( 'not_yet_approved' ) ;
#110 = PERSON_AND_ORGANIZATION_ROLE ( 'design_supplier' ) ;
#111 =( NAMED_UNIT ( * ) SI_UNIT ( $, .STERADIAN. ) SOLID_ANGLE_UNIT ( ) );
#112 = LINE ( 'NONE', #2, #124 ) ;
#113 = APPROVAL_PERSON_ORGANIZATION ( #171, #29, #38 ) ;
#114 = LOCAL_TIME ( 13, 14, 58.00000000000000000, #4 ) ;
#115 = CC_DESIGN_DATE_AND_TIME_ASSIGNMENT ( #52, #21, ( #19 ) ) ;
#116 = LOCAL_TIME ( 13, 14, 58.00000000000000000, #17 ) ;
#117 = CARTESIAN_POINT ( 'NONE',  ( 0.0000000000000000000, 0.0000000000000000000, 0.0000000000000000000 ) ) ;
#118 = EDGE_LOOP ( 'NONE', ( #49, #146 ) ) ;
#119 = PLANE ( 'NONE',  #164 ) ;
#120 = ADVANCED_BREP_SHAPE_REPRESENTATION ( 'Web Model 39242_39268', ( #54, #86 ), #79 ) ;
#121 = LOCAL_TIME ( 13, 14, 58.00000000000000000, #133 ) ;
#122 = ORIENTED_EDGE ( 'NONE', *, *, #76, .T. ) ;
#123 = AXIS2_PLACEMENT_3D ( 'NONE', #90, #163, #31 ) ;
#124 = VECTOR ( 'NONE', #61, 1000.000000000000000 ) ;
#125 = EDGE_LOOP ( 'NONE', ( #87, #175, #103, #45 ) ) ;
#126 = DIRECTION ( 'NONE',  ( 0.0000000000000000000, 0.0000000000000000000, 1.000000000000000000 ) ) ;
#127 = CARTESIAN_POINT ( 'NONE',  ( 0.0000000000000000000, 0.0000000000000000000, 0.5000000000000000000 ) ) ;
#128 = ADVANCED_FACE ( 'NONE', ( #41 ), #95, .T. ) ;
#129 = DIRECTION ( 'NONE',  ( 0.0000000000000000000, 0.0000000000000000000, 1.000000000000000000 ) ) ;
#130 = EDGE_LOOP ( 'NONE', ( #69, #106, #101, #172 ) ) ;
#131 = APPROVAL_ROLE ( '' ) ;
#132 = APPLICATION_CONTEXT ( 'configuration controlled 3d designs of mechanical parts and assemblies' ) ;
#133 = COORDINATED_UNIVERSAL_TIME_OFFSET ( 5, 0, .BEHIND. ) ;
#134 = UNCERTAINTY_MEASURE_WITH_UNIT (LENGTH_MEASURE( 1.000000000000000100E-005 ), #36, 'distance_accuracy_value', 'NONE');
#135 = VERTEX_POINT ( 'NONE', #63 ) ;
#136 = PRODUCT_DEFINITION_FORMATION_WITH_SPECIFIED_SOURCE ( 'ANY', '', #77, .NOT_KNOWN. ) ;
#137 = CIRCLE ( 'NONE', #173, 19.05000000000000100 ) ;
#138 = DIRECTION ( 'NONE',  ( 1.000000000000000000, 0.0000000000000000000, 0.0000000000000000000 ) ) ;
#139 = DIRECTION ( 'NONE',  ( -1.000000000000000000, 0.0000000000000000000, 0.0000000000000000000 ) ) ;
#140 = EDGE_CURVE ( 'NONE', #14, #85, #137, .T. ) ;
#141 = CALENDAR_DATE ( 2018, 25, 7 ) ;
#142 = DIRECTION ( 'NONE',  ( 1.000000000000000000, 0.0000000000000000000, -0.0000000000000000000 ) ) ;
#143 = DIRECTION ( 'NONE',  ( 0.0000000000000000000, 0.0000000000000000000, 1.000000000000000000 ) ) ;
#144 = APPROVAL_PERSON_ORGANIZATION ( #153, #159, #131 ) ;
#145 = PERSON_AND_ORGANIZATION_ROLE ( 'creator' ) ;
#146 = ORIENTED_EDGE ( 'NONE', *, *, #148, .F. ) ;
#147 = CC_DESIGN_APPROVAL ( #29, ( #66 ) ) ;
#148 = EDGE_CURVE ( 'NONE', #85, #14, #169, .T. ) ;
#149 = ORGANIZATION ( 'UNSPECIFIED', 'UNSPECIFIED', '' ) ;
#150 = COORDINATED_UNIVERSAL_TIME_OFFSET ( 5, 0, .BEHIND. ) ;
#151 = EDGE_CURVE ( 'NONE', #135, #14, #112, .T. ) ;
#152 = VECTOR ( 'NONE', #65, 1000.000000000000000 ) ;
#153 = PERSON_AND_ORGANIZATION ( #67, #149 ) ;
#154 = CLOSED_SHELL ( 'NONE', ( #128, #73, #72, #64 ) ) ;
#155 = PLANE ( 'NONE',  #84 ) ;
#156 = CARTESIAN_POINT ( 'NONE',  ( 0.0000000000000000000, 0.0000000000000000000, -0.5000000000000000000 ) ) ;
#157 = CARTESIAN_POINT ( 'NONE',  ( 19.05000000000000100, 2.332952152375708000E-015, 0.5000000000000000000 ) ) ;
#158 =( NAMED_UNIT ( * ) PLANE_ANGLE_UNIT ( ) SI_UNIT ( $, .RADIAN. ) );
#159 = APPROVAL ( #109, 'UNSPECIFIED' ) ;
#160 = LOCAL_TIME ( 13, 14, 58.00000000000000000, #167 ) ;
#161 = CIRCLE ( 'NONE', #70, 19.05000000000000100 ) ;
#162 = CC_DESIGN_APPROVAL ( #159, ( #136 ) ) ;
#163 = DIRECTION ( 'NONE',  ( 0.0000000000000000000, 0.0000000000000000000, 1.000000000000000000 ) ) ;
#164 = AXIS2_PLACEMENT_3D ( 'NONE', #105, #143, #16 ) ;
#165 = DIRECTION ( 'NONE',  ( -0.0000000000000000000, -0.0000000000000000000, -1.000000000000000000 ) ) ;
#166 = PERSON_AND_ORGANIZATION ( #67, #149 ) ;
#167 = COORDINATED_UNIVERSAL_TIME_OFFSET ( 5, 0, .BEHIND. ) ;
#168 = PERSON_AND_ORGANIZATION_ROLE ( 'design_owner' ) ;
#169 = CIRCLE ( 'NONE', #62, 19.05000000000000100 ) ;
#170 = CC_DESIGN_PERSON_AND_ORGANIZATION_ASSIGNMENT ( #22, #11, ( #19 ) ) ;
#171 = PERSON_AND_ORGANIZATION ( #67, #149 ) ;
#172 = ORIENTED_EDGE ( 'NONE', *, *, #140, .T. ) ;
#173 = AXIS2_PLACEMENT_3D ( 'NONE', #46, #129, #35 ) ;
#174 = APPROVAL_PERSON_ORGANIZATION ( #40, #98, #68 ) ;
#175 = ORIENTED_EDGE ( 'NONE', *, *, #13, .T. ) ;
ENDSEC;
END-ISO-10303-21;
