ISO-10303-21;
HEADER;
FILE_DESCRIPTION (( 'STEP AP203' ),
    '1' );
FILE_NAME ('Web Model 49121_13287.step',
    '2020-11-03T21:45:06',
    ( '' ),
    ( '' ),
    'SwSTEP 2.0',
    'SolidWorks 2018',
    '' );
FILE_SCHEMA (( 'CONFIG_CONTROL_DESIGN' ));
ENDSEC;

DATA;
#1 = COORDINATED_UNIVERSAL_TIME_OFFSET ( 5, 0, .BEHIND. ) ;
#2 = APPROVAL_PERSON_ORGANIZATION ( #77, #31, #90 ) ;
#3 = ADVANCED_FACE ( 'NONE', ( #17 ), #9, .T. ) ;
#4 = CC_DESIGN_PERSON_AND_ORGANIZATION_ASSIGNMENT ( #23, #116, ( #126 ) ) ;
#5 = FACE_OUTER_BOUND ( 'NONE', #55, .T. ) ;
#6 = CARTESIAN_POINT ( 'NONE',  ( 4.500000000000000000, 0.0000000000000000000, 0.0000000000000000000 ) ) ;
#7 = PLANE ( 'NONE',  #46 ) ;
#8 = CARTESIAN_POINT ( 'NONE',  ( -4.500000000000000000, 5.510910596163088569E-16, -2.000000000000000000 ) ) ;
#9 = CYLINDRICAL_SURFACE ( 'NONE', #83, 4.500000000000000000 ) ;
#10 = PERSON_AND_ORGANIZATION_ROLE ( 'design_supplier' ) ;
#11 = APPROVAL_DATE_TIME ( #125, #94 ) ;
#12 = APPROVAL_ROLE ( '' ) ;
#13 = EDGE_CURVE ( 'NONE', #100, #146, #72, .T. ) ;
#14 = CC_DESIGN_APPROVAL ( #94, ( #139 ) ) ;
#15 = ORIENTED_EDGE ( 'NONE', *, *, #175, .F. ) ;
#16 = ADVANCED_FACE ( 'NONE', ( #5 ), #20, .T. ) ;
#17 = FACE_OUTER_BOUND ( 'NONE', #134, .T. ) ;
#18 = DATE_AND_TIME ( #43, #44 ) ;
#19 = PRODUCT_DEFINITION_SHAPE ( 'NONE', 'NONE',  #108 ) ;
#20 = PLANE ( 'NONE',  #135 ) ;
#21 = VERTEX_POINT ( 'NONE', #127 ) ;
#22 = DIRECTION ( 'NONE',  ( 1.000000000000000000, 0.0000000000000000000, 0.0000000000000000000 ) ) ;
#23 = PERSON_AND_ORGANIZATION ( #71, #110 ) ;
#24 = DIRECTION ( 'NONE',  ( 0.0000000000000000000, 0.0000000000000000000, 1.000000000000000000 ) ) ;
#25 = DATE_TIME_ROLE ( 'classification_date' ) ;
#26 = PRODUCT ( 'Web Model 49121_13287', 'Web Model 49121_13287', '', ( #158 ) ) ;
#27 = EDGE_CURVE ( 'NONE', #21, #51, #32, .T. ) ;
#28 = PERSON_AND_ORGANIZATION ( #71, #110 ) ;
#29 = FACE_OUTER_BOUND ( 'NONE', #121, .T. ) ;
#30 = ORIENTED_EDGE ( 'NONE', *, *, #140, .T. ) ;
#31 = APPROVAL ( #129, 'UNSPECIFIED' ) ;
#32 = LINE ( 'NONE', #82, #142 ) ;
#33 =( NAMED_UNIT ( * ) SI_UNIT ( $, .STERADIAN. ) SOLID_ANGLE_UNIT ( ) );
#34 = DIRECTION ( 'NONE',  ( 0.0000000000000000000, 0.0000000000000000000, 1.000000000000000000 ) ) ;
#35 = APPROVAL_PERSON_ORGANIZATION ( #28, #58, #12 ) ;
#36 = DIRECTION ( 'NONE',  ( 0.0000000000000000000, 0.0000000000000000000, 1.000000000000000000 ) ) ;
#37 = CALENDAR_DATE ( 2020, 3, 11 ) ;
#38 = PERSON_AND_ORGANIZATION_ROLE ( 'creator' ) ;
#39 = CC_DESIGN_PERSON_AND_ORGANIZATION_ASSIGNMENT ( #154, #104, ( #139 ) ) ;
#40 = CC_DESIGN_APPROVAL ( #31, ( #126 ) ) ;
#41 = DATE_AND_TIME ( #37, #60 ) ;
#42 = ORIENTED_EDGE ( 'NONE', *, *, #13, .T. ) ;
#43 = CALENDAR_DATE ( 2020, 3, 11 ) ;
#44 = LOCAL_TIME ( 16, 45, 6.000000000000000000, #141 ) ;
#45 = UNCERTAINTY_MEASURE_WITH_UNIT (LENGTH_MEASURE( 1.000000000000000082E-05 ), #98, 'distance_accuracy_value', 'NONE');
#46 = AXIS2_PLACEMENT_3D ( 'NONE', #114, #36, #168 ) ;
#47 = CALENDAR_DATE ( 2020, 3, 11 ) ;
#48 = CARTESIAN_POINT ( 'NONE',  ( -4.500000000000000000, 5.510910596163088569E-16, -2.000000000000000000 ) ) ;
#49 =( NAMED_UNIT ( * ) PLANE_ANGLE_UNIT ( ) SI_UNIT ( $, .RADIAN. ) );
#50 = CIRCLE ( 'NONE', #75, 4.500000000000000000 ) ;
#51 = VERTEX_POINT ( 'NONE', #6 ) ;
#52 = CC_DESIGN_DATE_AND_TIME_ASSIGNMENT ( #99, #25, ( #139 ) ) ;
#53 = PERSON_AND_ORGANIZATION_ROLE ( 'design_owner' ) ;
#54 = MANIFOLD_SOLID_BREP ( 'Extrude1', #165 ) ;
#55 = EDGE_LOOP ( 'NONE', ( #30, #111 ) ) ;
#56 = APPROVAL_STATUS ( 'not_yet_approved' ) ;
#57 = EDGE_LOOP ( 'NONE', ( #161, #15 ) ) ;
#58 = APPROVAL ( #56, 'UNSPECIFIED' ) ;
#59 = ORIENTED_EDGE ( 'NONE', *, *, #73, .F. ) ;
#60 = LOCAL_TIME ( 16, 45, 6.000000000000000000, #152 ) ;
#61 = ORIENTED_EDGE ( 'NONE', *, *, #64, .T. ) ;
#62 = AXIS2_PLACEMENT_3D ( 'NONE', #136, #95, #65 ) ;
#63 = CARTESIAN_POINT ( 'NONE',  ( 0.0000000000000000000, 0.0000000000000000000, -2.000000000000000000 ) ) ;
#64 = EDGE_CURVE ( 'NONE', #21, #100, #91, .T. ) ;
#65 = DIRECTION ( 'NONE',  ( 1.000000000000000000, 0.0000000000000000000, 0.0000000000000000000 ) ) ;
#66 = DIRECTION ( 'NONE',  ( 0.0000000000000000000, 0.0000000000000000000, 1.000000000000000000 ) ) ;
#67 = LOCAL_TIME ( 16, 45, 6.000000000000000000, #109 ) ;
#68 = DIRECTION ( 'NONE',  ( 0.0000000000000000000, 0.0000000000000000000, 1.000000000000000000 ) ) ;
#69 = CARTESIAN_POINT ( 'NONE',  ( 0.0000000000000000000, 0.0000000000000000000, -2.000000000000000000 ) ) ;
#70 = ADVANCED_BREP_SHAPE_REPRESENTATION ( 'Web Model 49121_13287', ( #54, #62 ), #89 ) ;
#71 = PERSON ( 'UNSPECIFIED', 'UNSPECIFIED', 'UNSPECIFIED', ('UNSPECIFIED'), ('UNSPECIFIED'), ('UNSPECIFIED') ) ;
#72 = LINE ( 'NONE', #8, #155 ) ;
#73 = EDGE_CURVE ( 'NONE', #146, #51, #173, .T. ) ;
#74 = DESIGN_CONTEXT ( 'detailed design', #86, 'design' ) ;
#75 = AXIS2_PLACEMENT_3D ( 'NONE', #138, #101, #123 ) ;
#76 = PERSON_AND_ORGANIZATION ( #71, #110 ) ;
#77 = PERSON_AND_ORGANIZATION ( #71, #110 ) ;
#78 = DIRECTION ( 'NONE',  ( 0.0000000000000000000, 0.0000000000000000000, 1.000000000000000000 ) ) ;
#79 = SHAPE_DEFINITION_REPRESENTATION ( #19, #70 ) ;
#80 = CARTESIAN_POINT ( 'NONE',  ( 0.0000000000000000000, 0.0000000000000000000, 0.0000000000000000000 ) ) ;
#81 = DIRECTION ( 'NONE',  ( 1.000000000000000000, 0.0000000000000000000, 0.0000000000000000000 ) ) ;
#82 = CARTESIAN_POINT ( 'NONE',  ( 4.500000000000000000, 0.0000000000000000000, -2.000000000000000000 ) ) ;
#83 = AXIS2_PLACEMENT_3D ( 'NONE', #156, #169, #112 ) ;
#84 = PRODUCT_RELATED_PRODUCT_CATEGORY ( 'detail', '', ( #26 ) ) ;
#85 = APPROVAL_ROLE ( '' ) ;
#86 = APPLICATION_CONTEXT ( 'configuration controlled 3d designs of mechanical parts and assemblies' ) ;
#87 = SECURITY_CLASSIFICATION_LEVEL ( 'unclassified' ) ;
#88 = PERSON_AND_ORGANIZATION ( #71, #110 ) ;
#89 =( GEOMETRIC_REPRESENTATION_CONTEXT ( 3 ) GLOBAL_UNCERTAINTY_ASSIGNED_CONTEXT ( ( #45 ) ) GLOBAL_UNIT_ASSIGNED_CONTEXT ( ( #98, #49, #33 ) ) REPRESENTATION_CONTEXT ( 'NONE', 'WORKASPACE' ) );
#90 = APPROVAL_ROLE ( '' ) ;
#91 = CIRCLE ( 'NONE', #163, 4.500000000000000000 ) ;
#92 = PERSON_AND_ORGANIZATION ( #71, #110 ) ;
#93 = CALENDAR_DATE ( 2020, 3, 11 ) ;
#94 = APPROVAL ( #118, 'UNSPECIFIED' ) ;
#95 = DIRECTION ( 'NONE',  ( 0.0000000000000000000, 0.0000000000000000000, 1.000000000000000000 ) ) ;
#96 = CC_DESIGN_PERSON_AND_ORGANIZATION_ASSIGNMENT ( #92, #53, ( #26 ) ) ;
#97 = DIRECTION ( 'NONE',  ( 0.0000000000000000000, 0.0000000000000000000, 1.000000000000000000 ) ) ;
#98 =( LENGTH_UNIT ( ) NAMED_UNIT ( * ) SI_UNIT ( .MILLI., .METRE. ) );
#99 = DATE_AND_TIME ( #164, #67 ) ;
#100 = VERTEX_POINT ( 'NONE', #48 ) ;
#101 = DIRECTION ( 'NONE',  ( 0.0000000000000000000, 0.0000000000000000000, 1.000000000000000000 ) ) ;
#102 = ORIENTED_EDGE ( 'NONE', *, *, #27, .T. ) ;
#103 = CC_DESIGN_SECURITY_CLASSIFICATION ( #139, ( #126 ) ) ;
#104 = PERSON_AND_ORGANIZATION_ROLE ( 'classification_officer' ) ;
#105 = ADVANCED_FACE ( 'NONE', ( #29 ), #167, .T. ) ;
#106 = ORIENTED_EDGE ( 'NONE', *, *, #27, .F. ) ;
#107 = ADVANCED_FACE ( 'NONE', ( #170 ), #7, .F. ) ;
#108 = PRODUCT_DEFINITION ( 'UNKNOWN', '', #126, #74 ) ;
#109 = COORDINATED_UNIVERSAL_TIME_OFFSET ( 5, 0, .BEHIND. ) ;
#110 = ORGANIZATION ( 'UNSPECIFIED', 'UNSPECIFIED', '' ) ;
#111 = ORIENTED_EDGE ( 'NONE', *, *, #73, .T. ) ;
#112 = DIRECTION ( 'NONE',  ( 1.000000000000000000, 0.0000000000000000000, 0.0000000000000000000 ) ) ;
#113 = DIRECTION ( 'NONE',  ( 1.000000000000000000, 0.0000000000000000000, -0.0000000000000000000 ) ) ;
#114 = CARTESIAN_POINT ( 'NONE',  ( 0.0000000000000000000, 0.0000000000000000000, -2.000000000000000000 ) ) ;
#115 = CARTESIAN_POINT ( 'NONE',  ( 0.0000000000000000000, 0.0000000000000000000, 0.0000000000000000000 ) ) ;
#116 = PERSON_AND_ORGANIZATION_ROLE ( 'creator' ) ;
#117 = LOCAL_TIME ( 16, 45, 6.000000000000000000, #150 ) ;
#118 = APPROVAL_STATUS ( 'not_yet_approved' ) ;
#119 = CC_DESIGN_DATE_AND_TIME_ASSIGNMENT ( #120, #174, ( #108 ) ) ;
#120 = DATE_AND_TIME ( #47, #117 ) ;
#121 = EDGE_LOOP ( 'NONE', ( #61, #42, #131, #106 ) ) ;
#122 = CC_DESIGN_PERSON_AND_ORGANIZATION_ASSIGNMENT ( #132, #10, ( #126 ) ) ;
#123 = DIRECTION ( 'NONE',  ( 1.000000000000000000, 0.0000000000000000000, 0.0000000000000000000 ) ) ;
#124 = DIRECTION ( 'NONE',  ( 1.000000000000000000, 0.0000000000000000000, 0.0000000000000000000 ) ) ;
#125 = DATE_AND_TIME ( #93, #130 ) ;
#126 = PRODUCT_DEFINITION_FORMATION_WITH_SPECIFIED_SOURCE ( 'ANY', '', #26, .NOT_KNOWN. ) ;
#127 = CARTESIAN_POINT ( 'NONE',  ( 4.500000000000000000, 0.0000000000000000000, -2.000000000000000000 ) ) ;
#128 = ORIENTED_EDGE ( 'NONE', *, *, #13, .F. ) ;
#129 = APPROVAL_STATUS ( 'not_yet_approved' ) ;
#130 = LOCAL_TIME ( 16, 45, 6.000000000000000000, #1 ) ;
#131 = ORIENTED_EDGE ( 'NONE', *, *, #140, .F. ) ;
#132 = PERSON_AND_ORGANIZATION ( #71, #110 ) ;
#133 = ORIENTED_EDGE ( 'NONE', *, *, #175, .T. ) ;
#134 = EDGE_LOOP ( 'NONE', ( #128, #133, #102, #59 ) ) ;
#135 = AXIS2_PLACEMENT_3D ( 'NONE', #115, #24, #113 ) ;
#136 = CARTESIAN_POINT ( 'NONE',  ( 0.0000000000000000000, 0.0000000000000000000, 0.0000000000000000000 ) ) ;
#137 = APPLICATION_CONTEXT ( 'configuration controlled 3d designs of mechanical parts and assemblies' ) ;
#138 = CARTESIAN_POINT ( 'NONE',  ( 0.0000000000000000000, 0.0000000000000000000, -2.000000000000000000 ) ) ;
#139 = SECURITY_CLASSIFICATION ( '', '', #87 ) ;
#140 = EDGE_CURVE ( 'NONE', #51, #146, #148, .T. ) ;
#141 = COORDINATED_UNIVERSAL_TIME_OFFSET ( 5, 0, .BEHIND. ) ;
#142 = VECTOR ( 'NONE', #97, 1000.000000000000000 ) ;
#143 = APPROVAL_DATE_TIME ( #18, #31 ) ;
#144 = CC_DESIGN_APPROVAL ( #58, ( #108 ) ) ;
#145 = APPROVAL_DATE_TIME ( #41, #58 ) ;
#146 = VERTEX_POINT ( 'NONE', #157 ) ;
#147 = CARTESIAN_POINT ( 'NONE',  ( 0.0000000000000000000, 0.0000000000000000000, 0.0000000000000000000 ) ) ;
#148 = CIRCLE ( 'NONE', #166, 4.500000000000000000 ) ;
#149 = APPLICATION_PROTOCOL_DEFINITION ( 'international standard', 'config_control_design', 1994, #137 ) ;
#150 = COORDINATED_UNIVERSAL_TIME_OFFSET ( 5, 0, .BEHIND. ) ;
#151 = CC_DESIGN_PERSON_AND_ORGANIZATION_ASSIGNMENT ( #88, #38, ( #108 ) ) ;
#152 = COORDINATED_UNIVERSAL_TIME_OFFSET ( 5, 0, .BEHIND. ) ;
#153 = AXIS2_PLACEMENT_3D ( 'NONE', #147, #78, #81 ) ;
#154 = PERSON_AND_ORGANIZATION ( #71, #110 ) ;
#155 = VECTOR ( 'NONE', #34, 1000.000000000000000 ) ;
#156 = CARTESIAN_POINT ( 'NONE',  ( 0.0000000000000000000, 0.0000000000000000000, -2.000000000000000000 ) ) ;
#157 = CARTESIAN_POINT ( 'NONE',  ( -4.500000000000000000, 5.510910596163088569E-16, 0.0000000000000000000 ) ) ;
#158 = MECHANICAL_CONTEXT ( 'NONE', #137, 'mechanical' ) ;
#159 = DIRECTION ( 'NONE',  ( 0.0000000000000000000, 0.0000000000000000000, 1.000000000000000000 ) ) ;
#160 = AXIS2_PLACEMENT_3D ( 'NONE', #63, #68, #171 ) ;
#161 = ORIENTED_EDGE ( 'NONE', *, *, #64, .F. ) ;
#162 = APPLICATION_PROTOCOL_DEFINITION ( 'international standard', 'config_control_design', 1994, #86 ) ;
#163 = AXIS2_PLACEMENT_3D ( 'NONE', #69, #66, #124 ) ;
#164 = CALENDAR_DATE ( 2020, 3, 11 ) ;
#165 = CLOSED_SHELL ( 'NONE', ( #105, #3, #107, #16 ) ) ;
#166 = AXIS2_PLACEMENT_3D ( 'NONE', #80, #159, #22 ) ;
#167 = CYLINDRICAL_SURFACE ( 'NONE', #160, 4.500000000000000000 ) ;
#168 = DIRECTION ( 'NONE',  ( 1.000000000000000000, 0.0000000000000000000, -0.0000000000000000000 ) ) ;
#169 = DIRECTION ( 'NONE',  ( 0.0000000000000000000, 0.0000000000000000000, 1.000000000000000000 ) ) ;
#170 = FACE_OUTER_BOUND ( 'NONE', #57, .T. ) ;
#171 = DIRECTION ( 'NONE',  ( 1.000000000000000000, 0.0000000000000000000, 0.0000000000000000000 ) ) ;
#172 = APPROVAL_PERSON_ORGANIZATION ( #76, #94, #85 ) ;
#173 = CIRCLE ( 'NONE', #153, 4.500000000000000000 ) ;
#174 = DATE_TIME_ROLE ( 'creation_date' ) ;
#175 = EDGE_CURVE ( 'NONE', #100, #21, #50, .T. ) ;
ENDSEC;
END-ISO-10303-21;
