ISO-10303-21;
HEADER;
FILE_DESCRIPTION (( 'STEP AP203' ),
    '1' );
FILE_NAME ('Web Model 46104_46104.step',
    '2017-03-01T20:56:22',
    ( '' ),
    ( '' ),
    'SwSTEP 2.0',
    'SolidWorks 2016',
    '' );
FILE_SCHEMA (( 'CONFIG_CONTROL_DESIGN' ));
ENDSEC;

DATA;
#1 = PERSON_AND_ORGANIZATION ( #59, #115 ) ;
#2 = DIRECTION ( 'NONE',  ( 1.000000000000000000, 0.0000000000000000000, 0.0000000000000000000 ) ) ;
#3 = PERSON_AND_ORGANIZATION_ROLE ( 'creator' ) ;
#4 = DIRECTION ( 'NONE',  ( 1.000000000000000000, 0.0000000000000000000, 0.0000000000000000000 ) ) ;
#5 = CALENDAR_DATE ( 2017, 1, 3 ) ;
#6 = DATE_AND_TIME ( #15, #133 ) ;
#7 = APPLICATION_PROTOCOL_DEFINITION ( 'international standard', 'config_control_design', 1994, #53 ) ;
#8 = CC_DESIGN_PERSON_AND_ORGANIZATION_ASSIGNMENT ( #170, #113, ( #131 ) ) ;
#9 = ORIENTED_EDGE ( 'NONE', *, *, #153, .F. ) ;
#10 = AXIS2_PLACEMENT_3D ( 'NONE', #54, #140, #4 ) ;
#11 = COORDINATED_UNIVERSAL_TIME_OFFSET ( 5, 0, .BEHIND. ) ;
#12 = VERTEX_POINT ( 'NONE', #164 ) ;
#13 = AXIS2_PLACEMENT_3D ( 'NONE', #139, #108, #66 ) ;
#14 = CIRCLE ( 'NONE', #10, 50.79999999999999700 ) ;
#15 = CALENDAR_DATE ( 2017, 1, 3 ) ;
#16 = CC_DESIGN_DATE_AND_TIME_ASSIGNMENT ( #84, #75, ( #131 ) ) ;
#17 = DIRECTION ( 'NONE',  ( 0.0000000000000000000, 0.0000000000000000000, 1.000000000000000000 ) ) ;
#18 = LOCAL_TIME ( 15, 56, 22.00000000000000000, #157 ) ;
#19 =( LENGTH_UNIT ( ) NAMED_UNIT ( * ) SI_UNIT ( .MILLI., .METRE. ) );
#20 = APPROVAL_ROLE ( '' ) ;
#21 = AXIS2_PLACEMENT_3D ( 'NONE', #121, #40, #87 ) ;
#22 = COORDINATED_UNIVERSAL_TIME_OFFSET ( 5, 0, .BEHIND. ) ;
#23 = VERTEX_POINT ( 'NONE', #122 ) ;
#24 = PRODUCT_DEFINITION_FORMATION_WITH_SPECIFIED_SOURCE ( 'ANY', '', #48, .NOT_KNOWN. ) ;
#25 = PERSON_AND_ORGANIZATION ( #59, #115 ) ;
#26 = VERTEX_POINT ( 'NONE', #93 ) ;
#27 = CARTESIAN_POINT ( 'NONE',  ( 0.0000000000000000000, 0.0000000000000000000, 3.000000000000000000 ) ) ;
#28 = APPROVAL_STATUS ( 'not_yet_approved' ) ;
#29 =( NAMED_UNIT ( * ) PLANE_ANGLE_UNIT ( ) SI_UNIT ( $, .RADIAN. ) );
#30 = PERSON_AND_ORGANIZATION_ROLE ( 'design_supplier' ) ;
#31 = PERSON_AND_ORGANIZATION ( #59, #115 ) ;
#32 = APPROVAL ( #28, 'UNSPECIFIED' ) ;
#33 = DIRECTION ( 'NONE',  ( 1.000000000000000000, 0.0000000000000000000, 0.0000000000000000000 ) ) ;
#34 = SHAPE_DEFINITION_REPRESENTATION ( #67, #127 ) ;
#35 = EDGE_CURVE ( 'NONE', #165, #23, #152, .T. ) ;
#36 = PERSON_AND_ORGANIZATION ( #59, #115 ) ;
#37 = CARTESIAN_POINT ( 'NONE',  ( -50.79999999999999700, 0.0000000000000000000, 3.000000000000000000 ) ) ;
#38 = CC_DESIGN_APPROVAL ( #32, ( #24 ) ) ;
#39 = CARTESIAN_POINT ( 'NONE',  ( 0.0000000000000000000, 0.0000000000000000000, 3.000000000000000000 ) ) ;
#40 = DIRECTION ( 'NONE',  ( 0.0000000000000000000, 0.0000000000000000000, 1.000000000000000000 ) ) ;
#41 = DIRECTION ( 'NONE',  ( 1.000000000000000000, 0.0000000000000000000, -0.0000000000000000000 ) ) ;
#42 = APPROVAL_STATUS ( 'not_yet_approved' ) ;
#43 = CALENDAR_DATE ( 2017, 1, 3 ) ;
#44 = PERSON_AND_ORGANIZATION_ROLE ( 'classification_officer' ) ;
#45 = APPROVAL_STATUS ( 'not_yet_approved' ) ;
#46 = EDGE_LOOP ( 'NONE', ( #47, #9, #85, #71 ) ) ;
#47 = ORIENTED_EDGE ( 'NONE', *, *, #35, .F. ) ;
#48 = PRODUCT ( 'Web Model 46104_46104', 'Web Model 46104_46104', '', ( #128 ) ) ;
#49 = CC_DESIGN_PERSON_AND_ORGANIZATION_ASSIGNMENT ( #25, #3, ( #24 ) ) ;
#50 = PERSON_AND_ORGANIZATION ( #59, #115 ) ;
#51 = DIRECTION ( 'NONE',  ( 1.000000000000000000, 0.0000000000000000000, 0.0000000000000000000 ) ) ;
#52 = EDGE_CURVE ( 'NONE', #165, #12, #14, .T. ) ;
#53 = APPLICATION_CONTEXT ( 'configuration controlled 3d designs of mechanical parts and assemblies' ) ;
#54 = CARTESIAN_POINT ( 'NONE',  ( 0.0000000000000000000, 0.0000000000000000000, 3.000000000000000000 ) ) ;
#55 = ORIENTED_EDGE ( 'NONE', *, *, #52, .F. ) ;
#56 = CC_DESIGN_PERSON_AND_ORGANIZATION_ASSIGNMENT ( #50, #30, ( #24 ) ) ;
#57 = FACE_OUTER_BOUND ( 'NONE', #74, .T. ) ;
#58 = ADVANCED_FACE ( 'NONE', ( #99 ), #149, .F. ) ;
#59 = PERSON ( 'UNSPECIFIED', 'UNSPECIFIED', 'UNSPECIFIED', ('UNSPECIFIED'), ('UNSPECIFIED'), ('UNSPECIFIED') ) ;
#60 = PERSON_AND_ORGANIZATION ( #59, #115 ) ;
#61 = AXIS2_PLACEMENT_3D ( 'NONE', #63, #65, #51 ) ;
#62 = EDGE_CURVE ( 'NONE', #23, #26, #130, .T. ) ;
#63 = CARTESIAN_POINT ( 'NONE',  ( 0.0000000000000000000, 0.0000000000000000000, 0.0000000000000000000 ) ) ;
#64 = SECURITY_CLASSIFICATION ( '', '', #142 ) ;
#65 = DIRECTION ( 'NONE',  ( 0.0000000000000000000, 0.0000000000000000000, 1.000000000000000000 ) ) ;
#66 = DIRECTION ( 'NONE',  ( -1.000000000000000000, 0.0000000000000000000, 0.0000000000000000000 ) ) ;
#67 = PRODUCT_DEFINITION_SHAPE ( 'NONE', 'NONE',  #131 ) ;
#68 = PERSON_AND_ORGANIZATION_ROLE ( 'design_owner' ) ;
#69 = LOCAL_TIME ( 15, 56, 22.00000000000000000, #22 ) ;
#70 = APPROVAL_ROLE ( '' ) ;
#71 = ORIENTED_EDGE ( 'NONE', *, *, #154, .T. ) ;
#72 = CC_DESIGN_PERSON_AND_ORGANIZATION_ASSIGNMENT ( #60, #44, ( #64 ) ) ;
#73 = APPROVAL_DATE_TIME ( #97, #88 ) ;
#74 = EDGE_LOOP ( 'NONE', ( #171, #135 ) ) ;
#75 = DATE_TIME_ROLE ( 'creation_date' ) ;
#76 = CC_DESIGN_DATE_AND_TIME_ASSIGNMENT ( #6, #125, ( #64 ) ) ;
#77 = COORDINATED_UNIVERSAL_TIME_OFFSET ( 5, 0, .BEHIND. ) ;
#78 = UNCERTAINTY_MEASURE_WITH_UNIT (LENGTH_MEASURE( 1.000000000000000100E-005 ), #19, 'distance_accuracy_value', 'NONE');
#79 = ORIENTED_EDGE ( 'NONE', *, *, #62, .T. ) ;
#80 = DATE_AND_TIME ( #5, #69 ) ;
#81 = AXIS2_PLACEMENT_3D ( 'NONE', #39, #137, #159 ) ;
#82 = AXIS2_PLACEMENT_3D ( 'NONE', #27, #166, #111 ) ;
#83 = AXIS2_PLACEMENT_3D ( 'NONE', #89, #106, #2 ) ;
#84 = DATE_AND_TIME ( #163, #18 ) ;
#85 = ORIENTED_EDGE ( 'NONE', *, *, #119, .T. ) ;
#86 = MANIFOLD_SOLID_BREP ( 'Boss-Extrude1', #117 ) ;
#87 = DIRECTION ( 'NONE',  ( 1.000000000000000000, 0.0000000000000000000, 0.0000000000000000000 ) ) ;
#88 = APPROVAL ( #42, 'UNSPECIFIED' ) ;
#89 = CARTESIAN_POINT ( 'NONE',  ( 0.0000000000000000000, 0.0000000000000000000, 0.0000000000000000000 ) ) ;
#90 = PLANE ( 'NONE',  #82 ) ;
#91 = DIRECTION ( 'NONE',  ( -0.0000000000000000000, -0.0000000000000000000, -1.000000000000000000 ) ) ;
#92 = APPROVAL_DATE_TIME ( #155, #158 ) ;
#93 = CARTESIAN_POINT ( 'NONE',  ( -50.79999999999999700, 0.0000000000000000000, 0.0000000000000000000 ) ) ;
#94 = CARTESIAN_POINT ( 'NONE',  ( 0.0000000000000000000, 0.0000000000000000000, 0.0000000000000000000 ) ) ;
#95 = ORIENTED_EDGE ( 'NONE', *, *, #119, .F. ) ;
#96 = APPROVAL_ROLE ( '' ) ;
#97 = DATE_AND_TIME ( #160, #116 ) ;
#98 =( NAMED_UNIT ( * ) SI_UNIT ( $, .STERADIAN. ) SOLID_ANGLE_UNIT ( ) );
#99 = FACE_OUTER_BOUND ( 'NONE', #146, .T. ) ;
#100 = ADVANCED_FACE ( 'NONE', ( #156 ), #134, .T. ) ;
#101 =( GEOMETRIC_REPRESENTATION_CONTEXT ( 3 ) GLOBAL_UNCERTAINTY_ASSIGNED_CONTEXT ( ( #78 ) ) GLOBAL_UNIT_ASSIGNED_CONTEXT ( ( #19, #29, #98 ) ) REPRESENTATION_CONTEXT ( 'NONE', 'WORKASPACE' ) );
#102 = CC_DESIGN_PERSON_AND_ORGANIZATION_ASSIGNMENT ( #136, #68, ( #48 ) ) ;
#103 = APPROVAL_DATE_TIME ( #80, #32 ) ;
#104 = CYLINDRICAL_SURFACE ( 'NONE', #81, 50.79999999999999700 ) ;
#105 = CC_DESIGN_APPROVAL ( #88, ( #64 ) ) ;
#106 = DIRECTION ( 'NONE',  ( 0.0000000000000000000, 0.0000000000000000000, 1.000000000000000000 ) ) ;
#107 = EDGE_LOOP ( 'NONE', ( #55, #129, #79, #95 ) ) ;
#108 = DIRECTION ( 'NONE',  ( -0.0000000000000000000, -0.0000000000000000000, -1.000000000000000000 ) ) ;
#109 = DIRECTION ( 'NONE',  ( 0.0000000000000000000, 0.0000000000000000000, 1.000000000000000000 ) ) ;
#110 = ADVANCED_FACE ( 'NONE', ( #169 ), #104, .T. ) ;
#111 = DIRECTION ( 'NONE',  ( 1.000000000000000000, 0.0000000000000000000, -0.0000000000000000000 ) ) ;
#112 = CARTESIAN_POINT ( 'NONE',  ( 0.0000000000000000000, 0.0000000000000000000, 0.0000000000000000000 ) ) ;
#113 = PERSON_AND_ORGANIZATION_ROLE ( 'creator' ) ;
#114 = CC_DESIGN_SECURITY_CLASSIFICATION ( #64, ( #24 ) ) ;
#115 = ORGANIZATION ( 'UNSPECIFIED', 'UNSPECIFIED', '' ) ;
#116 = LOCAL_TIME ( 15, 56, 22.00000000000000000, #172 ) ;
#117 = CLOSED_SHELL ( 'NONE', ( #100, #110, #168, #58 ) ) ;
#118 = CIRCLE ( 'NONE', #61, 50.79999999999999700 ) ;
#119 = EDGE_CURVE ( 'NONE', #12, #26, #161, .T. ) ;
#120 = LOCAL_TIME ( 15, 56, 22.00000000000000000, #77 ) ;
#121 = CARTESIAN_POINT ( 'NONE',  ( 0.0000000000000000000, 0.0000000000000000000, 3.000000000000000000 ) ) ;
#122 = CARTESIAN_POINT ( 'NONE',  ( 50.79999999999999700, 6.221205739668553700E-015, 0.0000000000000000000 ) ) ;
#123 = CARTESIAN_POINT ( 'NONE',  ( 50.79999999999999700, 6.221205739668553700E-015, 3.000000000000000000 ) ) ;
#124 = APPROVAL_PERSON_ORGANIZATION ( #36, #158, #20 ) ;
#125 = DATE_TIME_ROLE ( 'classification_date' ) ;
#126 = APPLICATION_CONTEXT ( 'configuration controlled 3d designs of mechanical parts and assemblies' ) ;
#127 = ADVANCED_BREP_SHAPE_REPRESENTATION ( 'Web Model 46104_46104', ( #86, #175 ), #101 ) ;
#128 = MECHANICAL_CONTEXT ( 'NONE', #126, 'mechanical' ) ;
#129 = ORIENTED_EDGE ( 'NONE', *, *, #35, .T. ) ;
#130 = CIRCLE ( 'NONE', #83, 50.79999999999999700 ) ;
#131 = PRODUCT_DEFINITION ( 'UNKNOWN', '', #24, #144 ) ;
#132 = AXIS2_PLACEMENT_3D ( 'NONE', #112, #109, #41 ) ;
#133 = LOCAL_TIME ( 15, 56, 22.00000000000000000, #11 ) ;
#134 = CYLINDRICAL_SURFACE ( 'NONE', #13, 50.79999999999999700 ) ;
#135 = ORIENTED_EDGE ( 'NONE', *, *, #52, .T. ) ;
#136 = PERSON_AND_ORGANIZATION ( #59, #115 ) ;
#137 = DIRECTION ( 'NONE',  ( -0.0000000000000000000, -0.0000000000000000000, -1.000000000000000000 ) ) ;
#138 = VECTOR ( 'NONE', #91, 1000.000000000000000 ) ;
#139 = CARTESIAN_POINT ( 'NONE',  ( 0.0000000000000000000, 0.0000000000000000000, 3.000000000000000000 ) ) ;
#140 = DIRECTION ( 'NONE',  ( 0.0000000000000000000, 0.0000000000000000000, 1.000000000000000000 ) ) ;
#141 = ORIENTED_EDGE ( 'NONE', *, *, #154, .F. ) ;
#142 = SECURITY_CLASSIFICATION_LEVEL ( 'unclassified' ) ;
#143 = VECTOR ( 'NONE', #162, 1000.000000000000000 ) ;
#144 = DESIGN_CONTEXT ( 'detailed design', #53, 'design' ) ;
#145 = APPROVAL_PERSON_ORGANIZATION ( #1, #32, #96 ) ;
#146 = EDGE_LOOP ( 'NONE', ( #141, #151 ) ) ;
#147 = CARTESIAN_POINT ( 'NONE',  ( 50.79999999999999700, 6.221205739668553700E-015, 3.000000000000000000 ) ) ;
#148 = CIRCLE ( 'NONE', #21, 50.79999999999999700 ) ;
#149 = PLANE ( 'NONE',  #132 ) ;
#150 = APPLICATION_PROTOCOL_DEFINITION ( 'international standard', 'config_control_design', 1994, #126 ) ;
#151 = ORIENTED_EDGE ( 'NONE', *, *, #62, .F. ) ;
#152 = LINE ( 'NONE', #123, #138 ) ;
#153 = EDGE_CURVE ( 'NONE', #12, #165, #148, .T. ) ;
#154 = EDGE_CURVE ( 'NONE', #26, #23, #118, .T. ) ;
#155 = DATE_AND_TIME ( #43, #120 ) ;
#156 = FACE_OUTER_BOUND ( 'NONE', #107, .T. ) ;
#157 = COORDINATED_UNIVERSAL_TIME_OFFSET ( 5, 0, .BEHIND. ) ;
#158 = APPROVAL ( #45, 'UNSPECIFIED' ) ;
#159 = DIRECTION ( 'NONE',  ( -1.000000000000000000, 0.0000000000000000000, 0.0000000000000000000 ) ) ;
#160 = CALENDAR_DATE ( 2017, 1, 3 ) ;
#161 = LINE ( 'NONE', #37, #143 ) ;
#162 = DIRECTION ( 'NONE',  ( -0.0000000000000000000, -0.0000000000000000000, -1.000000000000000000 ) ) ;
#163 = CALENDAR_DATE ( 2017, 1, 3 ) ;
#164 = CARTESIAN_POINT ( 'NONE',  ( -50.79999999999999700, 0.0000000000000000000, 3.000000000000000000 ) ) ;
#165 = VERTEX_POINT ( 'NONE', #147 ) ;
#166 = DIRECTION ( 'NONE',  ( 0.0000000000000000000, 0.0000000000000000000, 1.000000000000000000 ) ) ;
#167 = APPROVAL_PERSON_ORGANIZATION ( #31, #88, #70 ) ;
#168 = ADVANCED_FACE ( 'NONE', ( #57 ), #90, .T. ) ;
#169 = FACE_OUTER_BOUND ( 'NONE', #46, .T. ) ;
#170 = PERSON_AND_ORGANIZATION ( #59, #115 ) ;
#171 = ORIENTED_EDGE ( 'NONE', *, *, #153, .T. ) ;
#172 = COORDINATED_UNIVERSAL_TIME_OFFSET ( 5, 0, .BEHIND. ) ;
#173 = CC_DESIGN_APPROVAL ( #158, ( #131 ) ) ;
#174 = PRODUCT_RELATED_PRODUCT_CATEGORY ( 'detail', '', ( #48 ) ) ;
#175 = AXIS2_PLACEMENT_3D ( 'NONE', #94, #17, #33 ) ;
ENDSEC;
END-ISO-10303-21;
