ISO-10303-21;
HEADER;
FILE_DESCRIPTION (( 'STEP AP203' ),
    '1' );
FILE_NAME ('Web Model 68374.STEP',
    '2017-01-31T19:50:58',
    ( '' ),
    ( '' ),
    'SwSTEP 2.0',
    'SolidWorks 2016',
    '' );
FILE_SCHEMA (( 'CONFIG_CONTROL_DESIGN' ));
ENDSEC;

DATA;
#1 = AXIS2_PLACEMENT_3D ( 'NONE', #89, #138, #35 ) ;
#2 = PERSON_AND_ORGANIZATION_ROLE ( 'design_owner' ) ;
#3 = LINE ( 'NONE', #163, #14 ) ;
#4 = ORIENTED_EDGE ( 'NONE', *, *, #182, .T. ) ;
#5 = ORIENTED_EDGE ( 'NONE', *, *, #143, .T. ) ;
#6 = PERSON_AND_ORGANIZATION_ROLE ( 'creator' ) ;
#7 = CC_DESIGN_PERSON_AND_ORGANIZATION_ASSIGNMENT ( #172, #148, ( #157 ) ) ;
#8 = VECTOR ( 'NONE', #107, 1000.000000000000000 ) ;
#9 = CARTESIAN_POINT ( 'NONE',  ( 17.49999999999999600, 17.50000000000000000, 3.000000000000000000 ) ) ;
#10 = DATE_AND_TIME ( #104, #134 ) ;
#11 = VERTEX_POINT ( 'NONE', #58 ) ;
#12 = CARTESIAN_POINT ( 'NONE',  ( 17.50000000000000400, -17.50000000000000400, 0.0000000000000000000 ) ) ;
#13 = EDGE_CURVE ( 'NONE', #191, #184, #67, .T. ) ;
#14 = VECTOR ( 'NONE', #16, 1000.000000000000000 ) ;
#15 = LINE ( 'NONE', #103, #106 ) ;
#16 = DIRECTION ( 'NONE',  ( -1.000000000000000000, -1.982541115402065100E-016, 0.0000000000000000000 ) ) ;
#17 = CARTESIAN_POINT ( 'NONE',  ( -17.50000000000000000, 17.49999999999999600, 3.000000000000000000 ) ) ;
#18 = COORDINATED_UNIVERSAL_TIME_OFFSET ( 5, 0, .BEHIND. ) ;
#19 = CC_DESIGN_DATE_AND_TIME_ASSIGNMENT ( #10, #205, ( #157 ) ) ;
#20 = DIRECTION ( 'NONE',  ( -1.000000000000000000, -1.982541115402065100E-016, 0.0000000000000000000 ) ) ;
#21 = ORIENTED_EDGE ( 'NONE', *, *, #13, .T. ) ;
#22 = APPLICATION_PROTOCOL_DEFINITION ( 'international standard', 'config_control_design', 1994, #146 ) ;
#23 = SECURITY_CLASSIFICATION_LEVEL ( 'unclassified' ) ;
#24 = AXIS2_PLACEMENT_3D ( 'NONE', #221, #220, #113 ) ;
#25 = VECTOR ( 'NONE', #20, 1000.000000000000000 ) ;
#26 = PERSON_AND_ORGANIZATION ( #32, #75 ) ;
#27 = PERSON_AND_ORGANIZATION ( #32, #75 ) ;
#28 = EDGE_CURVE ( 'NONE', #11, #105, #15, .T. ) ;
#29 = VERTEX_POINT ( 'NONE', #142 ) ;
#30 = COORDINATED_UNIVERSAL_TIME_OFFSET ( 5, 0, .BEHIND. ) ;
#31 = LINE ( 'NONE', #9, #99 ) ;
#32 = PERSON ( 'UNSPECIFIED', 'UNSPECIFIED', 'UNSPECIFIED', ('UNSPECIFIED'), ('UNSPECIFIED'), ('UNSPECIFIED') ) ;
#33 = DIRECTION ( 'NONE',  ( 9.912705577010325500E-017, -1.000000000000000000, 0.0000000000000000000 ) ) ;
#34 = EDGE_CURVE ( 'NONE', #228, #191, #92, .T. ) ;
#35 = DIRECTION ( 'NONE',  ( 1.000000000000000000, 1.982541115402065100E-016, 0.0000000000000000000 ) ) ;
#36 = PERSON_AND_ORGANIZATION ( #32, #75 ) ;
#37 = CC_DESIGN_APPROVAL ( #42, ( #200 ) ) ;
#38 = CARTESIAN_POINT ( 'NONE',  ( 17.50000000000000400, -17.50000000000000400, 3.000000000000000000 ) ) ;
#39 = CARTESIAN_POINT ( 'NONE',  ( 17.49999999999999600, 17.50000000000000000, 0.0000000000000000000 ) ) ;
#40 = APPROVAL_ROLE ( '' ) ;
#41 = ADVANCED_FACE ( 'NONE', ( #150 ), #177, .F. ) ;
#42 = APPROVAL ( #94, 'UNSPECIFIED' ) ;
#43 = FACE_OUTER_BOUND ( 'NONE', #79, .T. ) ;
#44 = APPROVAL_STATUS ( 'not_yet_approved' ) ;
#45 = FACE_OUTER_BOUND ( 'NONE', #48, .T. ) ;
#46 = APPROVAL ( #44, 'UNSPECIFIED' ) ;
#47 = APPROVAL_DATE_TIME ( #123, #50 ) ;
#48 = EDGE_LOOP ( 'NONE', ( #4, #84, #65, #116 ) ) ;
#49 = EDGE_CURVE ( 'NONE', #184, #198, #66, .T. ) ;
#50 = APPROVAL ( #120, 'UNSPECIFIED' ) ;
#51 = ORIENTED_EDGE ( 'NONE', *, *, #13, .F. ) ;
#52 = CC_DESIGN_PERSON_AND_ORGANIZATION_ASSIGNMENT ( #73, #97, ( #214 ) ) ;
#53 = AXIS2_PLACEMENT_3D ( 'NONE', #160, #174, #108 ) ;
#54 = CALENDAR_DATE ( 2017, 31, 1 ) ;
#55 = VECTOR ( 'NONE', #93, 1000.000000000000000 ) ;
#56 = ORIENTED_EDGE ( 'NONE', *, *, #34, .F. ) ;
#57 = CARTESIAN_POINT ( 'NONE',  ( 17.50000000000000400, -17.50000000000000400, 3.000000000000000000 ) ) ;
#58 = CARTESIAN_POINT ( 'NONE',  ( 17.50000000000000400, -17.50000000000000400, 0.0000000000000000000 ) ) ;
#59 = PLANE ( 'NONE',  #152 ) ;
#60 = VERTEX_POINT ( 'NONE', #190 ) ;
#61 =( LENGTH_UNIT ( ) NAMED_UNIT ( * ) SI_UNIT ( .MILLI., .METRE. ) );
#62 = MECHANICAL_CONTEXT ( 'NONE', #146, 'mechanical' ) ;
#63 = LINE ( 'NONE', #12, #8 ) ;
#64 = ADVANCED_FACE ( 'NONE', ( #217 ), #230, .F. ) ;
#65 = ORIENTED_EDGE ( 'NONE', *, *, #196, .F. ) ;
#66 = LINE ( 'NONE', #173, #81 ) ;
#67 = LINE ( 'NONE', #128, #112 ) ;
#68 = CARTESIAN_POINT ( 'NONE',  ( -17.50000000000000000, 17.49999999999999600, 3.000000000000000000 ) ) ;
#69 = DIRECTION ( 'NONE',  ( -0.0000000000000000000, -0.0000000000000000000, -1.000000000000000000 ) ) ;
#70 = DIRECTION ( 'NONE',  ( 1.982541115402065100E-016, -1.000000000000000000, 0.0000000000000000000 ) ) ;
#71 = LINE ( 'NONE', #175, #185 ) ;
#72 = CARTESIAN_POINT ( 'NONE',  ( -17.49999999999999600, -17.50000000000000700, 3.000000000000000000 ) ) ;
#73 = PERSON_AND_ORGANIZATION ( #32, #75 ) ;
#74 = APPLICATION_PROTOCOL_DEFINITION ( 'international standard', 'config_control_design', 1994, #194 ) ;
#75 = ORGANIZATION ( 'UNSPECIFIED', 'UNSPECIFIED', '' ) ;
#76 = ORIENTED_EDGE ( 'NONE', *, *, #229, .T. ) ;
#77 = APPROVAL_ROLE ( '' ) ;
#78 = EDGE_LOOP ( 'NONE', ( #155, #144, #56, #149 ) ) ;
#79 = EDGE_LOOP ( 'NONE', ( #236, #124, #204, #189 ) ) ;
#80 = CALENDAR_DATE ( 2017, 31, 1 ) ;
#81 = VECTOR ( 'NONE', #86, 1000.000000000000000 ) ;
#82 = CC_DESIGN_PERSON_AND_ORGANIZATION_ASSIGNMENT ( #27, #6, ( #200 ) ) ;
#83 = COORDINATED_UNIVERSAL_TIME_OFFSET ( 5, 0, .BEHIND. ) ;
#84 = ORIENTED_EDGE ( 'NONE', *, *, #151, .F. ) ;
#85 = PLANE ( 'NONE',  #1 ) ;
#86 = DIRECTION ( 'NONE',  ( -1.982541115402065100E-016, 1.000000000000000000, -0.0000000000000000000 ) ) ;
#87 = PERSON_AND_ORGANIZATION ( #32, #75 ) ;
#88 = LOCAL_TIME ( 14, 50, 58.00000000000000000, #211 ) ;
#89 = CARTESIAN_POINT ( 'NONE',  ( 17.49999999999999600, 17.50000000000000000, 3.000000000000000000 ) ) ;
#90 = AXIS2_PLACEMENT_3D ( 'NONE', #218, #159, #70 ) ;
#91 = ORIENTED_EDGE ( 'NONE', *, *, #156, .T. ) ;
#92 = LINE ( 'NONE', #68, #154 ) ;
#93 = DIRECTION ( 'NONE',  ( -0.0000000000000000000, -0.0000000000000000000, -1.000000000000000000 ) ) ;
#94 = APPROVAL_STATUS ( 'not_yet_approved' ) ;
#95 = PERSON_AND_ORGANIZATION ( #32, #75 ) ;
#96 = EDGE_CURVE ( 'NONE', #198, #105, #31, .T. ) ;
#97 = PERSON_AND_ORGANIZATION_ROLE ( 'creator' ) ;
#98 = ORIENTED_EDGE ( 'NONE', *, *, #196, .T. ) ;
#99 = VECTOR ( 'NONE', #127, 1000.000000000000000 ) ;
#100 = CC_DESIGN_PERSON_AND_ORGANIZATION_ASSIGNMENT ( #87, #133, ( #214 ) ) ;
#101 = LOCAL_TIME ( 14, 50, 58.00000000000000000, #18 ) ;
#102 = LINE ( 'NONE', #219, #203 ) ;
#103 = CARTESIAN_POINT ( 'NONE',  ( 17.49999999999999600, 17.50000000000000000, 0.0000000000000000000 ) ) ;
#104 = CALENDAR_DATE ( 2017, 31, 1 ) ;
#105 = VERTEX_POINT ( 'NONE', #213 ) ;
#106 = VECTOR ( 'NONE', #231, 1000.000000000000000 ) ;
#107 = DIRECTION ( 'NONE',  ( 1.000000000000000000, 9.912705577010325500E-017, -0.0000000000000000000 ) ) ;
#108 = DIRECTION ( 'NONE',  ( -1.000000000000000000, -9.912705577010325500E-017, 0.0000000000000000000 ) ) ;
#109 = DATE_AND_TIME ( #54, #101 ) ;
#110 = CC_DESIGN_APPROVAL ( #50, ( #214 ) ) ;
#111 = DIRECTION ( 'NONE',  ( -1.000000000000000000, 0.0000000000000000000, -0.0000000000000000000 ) ) ;
#112 = VECTOR ( 'NONE', #215, 1000.000000000000000 ) ;
#113 = DIRECTION ( 'NONE',  ( 1.000000000000000000, 0.0000000000000000000, 0.0000000000000000000 ) ) ;
#114 = DIRECTION ( 'NONE',  ( -1.000000000000000000, 0.0000000000000000000, -0.0000000000000000000 ) ) ;
#115 = APPROVAL_PERSON_ORGANIZATION ( #36, #50, #77 ) ;
#116 = ORIENTED_EDGE ( 'NONE', *, *, #96, .T. ) ;
#117 = LINE ( 'NONE', #57, #187 ) ;
#118 = CARTESIAN_POINT ( 'NONE',  ( -17.49999999999999600, -17.50000000000000700, 0.0000000000000000000 ) ) ;
#119 = ADVANCED_FACE ( 'NONE', ( #45 ), #85, .F. ) ;
#120 = APPROVAL_STATUS ( 'not_yet_approved' ) ;
#121 = FACE_OUTER_BOUND ( 'NONE', #78, .T. ) ;
#122 = DESIGN_CONTEXT ( 'detailed design', #194, 'design' ) ;
#123 = DATE_AND_TIME ( #168, #216 ) ;
#124 = ORIENTED_EDGE ( 'NONE', *, *, #182, .F. ) ;
#125 = CC_DESIGN_PERSON_AND_ORGANIZATION_ASSIGNMENT ( #158, #2, ( #208 ) ) ;
#126 = ORIENTED_EDGE ( 'NONE', *, *, #28, .T. ) ;
#127 = DIRECTION ( 'NONE',  ( -0.0000000000000000000, -0.0000000000000000000, -1.000000000000000000 ) ) ;
#128 = CARTESIAN_POINT ( 'NONE',  ( 17.50000000000000400, -17.50000000000000400, 3.000000000000000000 ) ) ;
#129 = CARTESIAN_POINT ( 'NONE',  ( 17.49999999999999600, 17.50000000000000000, 3.000000000000000000 ) ) ;
#130 = DIRECTION ( 'NONE',  ( 9.912705577010325500E-017, -1.000000000000000000, 0.0000000000000000000 ) ) ;
#131 = DIRECTION ( 'NONE',  ( 0.0000000000000000000, 0.0000000000000000000, -1.000000000000000000 ) ) ;
#132 = DATE_AND_TIME ( #80, #88 ) ;
#133 = PERSON_AND_ORGANIZATION_ROLE ( 'design_supplier' ) ;
#134 = LOCAL_TIME ( 14, 50, 58.00000000000000000, #83 ) ;
#135 = DATE_AND_TIME ( #222, #183 ) ;
#136 = UNCERTAINTY_MEASURE_WITH_UNIT (LENGTH_MEASURE( 1.000000000000000100E-005 ), #61, 'distance_accuracy_value', 'NONE');
#137 = CLOSED_SHELL ( 'NONE', ( #235, #64, #41, #119, #181, #197 ) ) ;
#138 = DIRECTION ( 'NONE',  ( 1.982541115402065100E-016, -1.000000000000000000, 0.0000000000000000000 ) ) ;
#139 = SHAPE_DEFINITION_REPRESENTATION ( #210, #186 ) ;
#140 = EDGE_LOOP ( 'NONE', ( #126, #171, #234, #5 ) ) ;
#141 = FACE_OUTER_BOUND ( 'NONE', #227, .T. ) ;
#142 = CARTESIAN_POINT ( 'NONE',  ( -17.50000000000000000, 17.49999999999999600, 0.0000000000000000000 ) ) ;
#143 = EDGE_CURVE ( 'NONE', #184, #11, #117, .T. ) ;
#144 = ORIENTED_EDGE ( 'NONE', *, *, #229, .F. ) ;
#145 = CC_DESIGN_DATE_AND_TIME_ASSIGNMENT ( #132, #167, ( #200 ) ) ;
#146 = APPLICATION_CONTEXT ( 'configuration controlled 3d designs of mechanical parts and assemblies' ) ;
#147 = LINE ( 'NONE', #223, #55 ) ;
#148 = PERSON_AND_ORGANIZATION_ROLE ( 'classification_officer' ) ;
#149 = ORIENTED_EDGE ( 'NONE', *, *, #151, .T. ) ;
#150 = FACE_OUTER_BOUND ( 'NONE', #140, .T. ) ;
#151 = EDGE_CURVE ( 'NONE', #228, #29, #71, .T. ) ;
#152 = AXIS2_PLACEMENT_3D ( 'NONE', #118, #131, #114 ) ;
#153 = APPROVAL_DATE_TIME ( #109, #46 ) ;
#154 = VECTOR ( 'NONE', #33, 1000.000000000000000 ) ;
#155 = ORIENTED_EDGE ( 'NONE', *, *, #199, .T. ) ;
#156 = EDGE_CURVE ( 'NONE', #60, #11, #63, .T. ) ;
#157 = SECURITY_CLASSIFICATION ( '', '', #23 ) ;
#158 = PERSON_AND_ORGANIZATION ( #32, #75 ) ;
#159 = DIRECTION ( 'NONE',  ( -1.000000000000000000, -1.982541115402065100E-016, 0.0000000000000000000 ) ) ;
#160 = CARTESIAN_POINT ( 'NONE',  ( 17.50000000000000400, -17.50000000000000400, 3.000000000000000000 ) ) ;
#161 =( NAMED_UNIT ( * ) PLANE_ANGLE_UNIT ( ) SI_UNIT ( $, .RADIAN. ) );
#162 =( NAMED_UNIT ( * ) SI_UNIT ( $, .STERADIAN. ) SOLID_ANGLE_UNIT ( ) );
#163 = CARTESIAN_POINT ( 'NONE',  ( 17.49999999999999600, 17.50000000000000000, 3.000000000000000000 ) ) ;
#164 = CARTESIAN_POINT ( 'NONE',  ( -17.49999999999999600, -17.50000000000000700, 3.000000000000000000 ) ) ;
#165 = PLANE ( 'NONE',  #193 ) ;
#166 = AXIS2_PLACEMENT_3D ( 'NONE', #17, #178, #237 ) ;
#167 = DATE_TIME_ROLE ( 'creation_date' ) ;
#168 = CALENDAR_DATE ( 2017, 31, 1 ) ;
#169 = APPROVAL_DATE_TIME ( #135, #42 ) ;
#170 = CC_DESIGN_APPROVAL ( #46, ( #157 ) ) ;
#171 = ORIENTED_EDGE ( 'NONE', *, *, #96, .F. ) ;
#172 = PERSON_AND_ORGANIZATION ( #32, #75 ) ;
#173 = CARTESIAN_POINT ( 'NONE',  ( 17.49999999999999600, 17.50000000000000000, 3.000000000000000000 ) ) ;
#174 = DIRECTION ( 'NONE',  ( -9.912705577010325500E-017, 1.000000000000000000, 0.0000000000000000000 ) ) ;
#175 = CARTESIAN_POINT ( 'NONE',  ( -17.50000000000000000, 17.49999999999999600, 3.000000000000000000 ) ) ;
#176 = APPROVAL_PERSON_ORGANIZATION ( #95, #42, #40 ) ;
#177 = PLANE ( 'NONE',  #90 ) ;
#178 = DIRECTION ( 'NONE',  ( 1.000000000000000000, 9.912705577010325500E-017, -0.0000000000000000000 ) ) ;
#179 = PLANE ( 'NONE',  #166 ) ;
#180 = CARTESIAN_POINT ( 'NONE',  ( -17.50000000000000000, 17.49999999999999600, 3.000000000000000000 ) ) ;
#181 = ADVANCED_FACE ( 'NONE', ( #141 ), #165, .F. ) ;
#182 = EDGE_CURVE ( 'NONE', #105, #29, #226, .T. ) ;
#183 = LOCAL_TIME ( 14, 50, 58.00000000000000000, #233 ) ;
#184 = VERTEX_POINT ( 'NONE', #38 ) ;
#185 = VECTOR ( 'NONE', #192, 1000.000000000000000 ) ;
#186 = ADVANCED_BREP_SHAPE_REPRESENTATION ( 'Web Model 68374', ( #201, #24 ), #207 ) ;
#187 = VECTOR ( 'NONE', #69, 1000.000000000000000 ) ;
#188 = PRODUCT_RELATED_PRODUCT_CATEGORY ( 'detail', '', ( #208 ) ) ;
#189 = ORIENTED_EDGE ( 'NONE', *, *, #156, .F. ) ;
#190 = CARTESIAN_POINT ( 'NONE',  ( -17.49999999999999600, -17.50000000000000700, 0.0000000000000000000 ) ) ;
#191 = VERTEX_POINT ( 'NONE', #72 ) ;
#192 = DIRECTION ( 'NONE',  ( -0.0000000000000000000, -0.0000000000000000000, -1.000000000000000000 ) ) ;
#193 = AXIS2_PLACEMENT_3D ( 'NONE', #164, #195, #111 ) ;
#194 = APPLICATION_CONTEXT ( 'configuration controlled 3d designs of mechanical parts and assemblies' ) ;
#195 = DIRECTION ( 'NONE',  ( 0.0000000000000000000, 0.0000000000000000000, -1.000000000000000000 ) ) ;
#196 = EDGE_CURVE ( 'NONE', #198, #228, #3, .T. ) ;
#197 = ADVANCED_FACE ( 'NONE', ( #43 ), #59, .T. ) ;
#198 = VERTEX_POINT ( 'NONE', #129 ) ;
#199 = EDGE_CURVE ( 'NONE', #29, #60, #102, .T. ) ;
#200 = PRODUCT_DEFINITION ( 'UNKNOWN', '', #214, #122 ) ;
#201 = MANIFOLD_SOLID_BREP ( 'Extrude1', #137 ) ;
#202 = APPROVAL_ROLE ( '' ) ;
#203 = VECTOR ( 'NONE', #130, 1000.000000000000000 ) ;
#204 = ORIENTED_EDGE ( 'NONE', *, *, #28, .F. ) ;
#205 = DATE_TIME_ROLE ( 'classification_date' ) ;
#206 = EDGE_LOOP ( 'NONE', ( #91, #212, #51, #76 ) ) ;
#207 =( GEOMETRIC_REPRESENTATION_CONTEXT ( 3 ) GLOBAL_UNCERTAINTY_ASSIGNED_CONTEXT ( ( #136 ) ) GLOBAL_UNIT_ASSIGNED_CONTEXT ( ( #61, #161, #162 ) ) REPRESENTATION_CONTEXT ( 'NONE', 'WORKASPACE' ) );
#208 = PRODUCT ( 'Web Model 68374', 'Web Model 68374', '', ( #62 ) ) ;
#209 = ORIENTED_EDGE ( 'NONE', *, *, #49, .T. ) ;
#210 = PRODUCT_DEFINITION_SHAPE ( 'NONE', 'NONE',  #200 ) ;
#211 = COORDINATED_UNIVERSAL_TIME_OFFSET ( 5, 0, .BEHIND. ) ;
#212 = ORIENTED_EDGE ( 'NONE', *, *, #143, .F. ) ;
#213 = CARTESIAN_POINT ( 'NONE',  ( 17.49999999999999600, 17.50000000000000000, 0.0000000000000000000 ) ) ;
#214 = PRODUCT_DEFINITION_FORMATION_WITH_SPECIFIED_SOURCE ( 'ANY', '', #208, .NOT_KNOWN. ) ;
#215 = DIRECTION ( 'NONE',  ( 1.000000000000000000, 9.912705577010325500E-017, -0.0000000000000000000 ) ) ;
#216 = LOCAL_TIME ( 14, 50, 58.00000000000000000, #30 ) ;
#217 = FACE_OUTER_BOUND ( 'NONE', #206, .T. ) ;
#218 = CARTESIAN_POINT ( 'NONE',  ( 17.49999999999999600, 17.50000000000000000, 3.000000000000000000 ) ) ;
#219 = CARTESIAN_POINT ( 'NONE',  ( -17.50000000000000000, 17.49999999999999600, 0.0000000000000000000 ) ) ;
#220 = DIRECTION ( 'NONE',  ( 0.0000000000000000000, 0.0000000000000000000, 1.000000000000000000 ) ) ;
#221 = CARTESIAN_POINT ( 'NONE',  ( 0.0000000000000000000, 0.0000000000000000000, 0.0000000000000000000 ) ) ;
#222 = CALENDAR_DATE ( 2017, 31, 1 ) ;
#223 = CARTESIAN_POINT ( 'NONE',  ( -17.49999999999999600, -17.50000000000000700, 3.000000000000000000 ) ) ;
#224 = CC_DESIGN_SECURITY_CLASSIFICATION ( #157, ( #214 ) ) ;
#225 = ORIENTED_EDGE ( 'NONE', *, *, #34, .T. ) ;
#226 = LINE ( 'NONE', #39, #25 ) ;
#227 = EDGE_LOOP ( 'NONE', ( #225, #21, #209, #98 ) ) ;
#228 = VERTEX_POINT ( 'NONE', #180 ) ;
#229 = EDGE_CURVE ( 'NONE', #191, #60, #147, .T. ) ;
#230 = PLANE ( 'NONE',  #53 ) ;
#231 = DIRECTION ( 'NONE',  ( -1.982541115402065100E-016, 1.000000000000000000, -0.0000000000000000000 ) ) ;
#232 = APPROVAL_PERSON_ORGANIZATION ( #26, #46, #202 ) ;
#233 = COORDINATED_UNIVERSAL_TIME_OFFSET ( 5, 0, .BEHIND. ) ;
#234 = ORIENTED_EDGE ( 'NONE', *, *, #49, .F. ) ;
#235 = ADVANCED_FACE ( 'NONE', ( #121 ), #179, .F. ) ;
#236 = ORIENTED_EDGE ( 'NONE', *, *, #199, .F. ) ;
#237 = DIRECTION ( 'NONE',  ( -9.912705577010325500E-017, 1.000000000000000000, 0.0000000000000000000 ) ) ;
ENDSEC;
END-ISO-10303-21;
