ISO-10303-21;
HEADER;
FILE_DESCRIPTION (( 'STEP AP203' ),
    '1' );
FILE_NAME ('Web Model 43848_46080.step',
    '2018-03-12T20:51:02',
    ( '' ),
    ( '' ),
    'SwSTEP 2.0',
    'SolidWorks 2016',
    '' );
FILE_SCHEMA (( 'CONFIG_CONTROL_DESIGN' ));
ENDSEC;

DATA;
#1 = DIRECTION ( 'NONE',  ( 0.0000000000000000000, -1.000000000000000000, -2.775557561562891400E-016 ) ) ;
#2 =( NAMED_UNIT ( * ) PLANE_ANGLE_UNIT ( ) SI_UNIT ( $, .RADIAN. ) );
#3 = COORDINATED_UNIVERSAL_TIME_OFFSET ( 5, 0, .BEHIND. ) ;
#4 = LINE ( 'NONE', #14, #48 ) ;
#5 = APPROVAL_DATE_TIME ( #59, #197 ) ;
#6 = CARTESIAN_POINT ( 'NONE',  ( -4.750000000000000000, 12.50000000000000000, -12.50000000000000000 ) ) ;
#7 = DIRECTION ( 'NONE',  ( 0.0000000000000000000, 0.0000000000000000000, -1.000000000000000000 ) ) ;
#8 = PERSON ( 'UNSPECIFIED', 'UNSPECIFIED', 'UNSPECIFIED', ('UNSPECIFIED'), ('UNSPECIFIED'), ('UNSPECIFIED') ) ;
#9 = DIRECTION ( 'NONE',  ( 1.000000000000000000, 0.0000000000000000000, 0.0000000000000000000 ) ) ;
#10 = CARTESIAN_POINT ( 'NONE',  ( 4.750000000000000000, 12.50000000000000000, -12.50000000000000000 ) ) ;
#11 = DIRECTION ( 'NONE',  ( -1.000000000000000000, 0.0000000000000000000, -0.0000000000000000000 ) ) ;
#12 = CARTESIAN_POINT ( 'NONE',  ( 4.750000000000000000, -12.50000000000000000, -12.50000000000000000 ) ) ;
#13 = ORIENTED_EDGE ( 'NONE', *, *, #154, .T. ) ;
#14 = CARTESIAN_POINT ( 'NONE',  ( -4.750000000000000000, 12.49999999999999300, 12.50000000000000000 ) ) ;
#15 = CARTESIAN_POINT ( 'NONE',  ( 4.750000000000000000, 12.49999999999999300, 12.50000000000000000 ) ) ;
#16 = EDGE_CURVE ( 'NONE', #122, #217, #207, .T. ) ;
#17 = APPLICATION_CONTEXT ( 'configuration controlled 3d designs of mechanical parts and assemblies' ) ;
#18 = MECHANICAL_CONTEXT ( 'NONE', #168, 'mechanical' ) ;
#19 = VERTEX_POINT ( 'NONE', #6 ) ;
#20 = DIRECTION ( 'NONE',  ( 0.0000000000000000000, 0.0000000000000000000, -1.000000000000000000 ) ) ;
#21 = DATE_AND_TIME ( #184, #190 ) ;
#22 = LINE ( 'NONE', #198, #235 ) ;
#23 = PRODUCT ( 'Web Model 43848_46080', 'Web Model 43848_46080', '', ( #18 ) ) ;
#24 = EDGE_CURVE ( 'NONE', #73, #221, #105, .T. ) ;
#25 = APPROVAL_DATE_TIME ( #229, #116 ) ;
#26 = CARTESIAN_POINT ( 'NONE',  ( 4.750000000000000000, 12.49999999999999300, 12.50000000000000000 ) ) ;
#27 = ORIENTED_EDGE ( 'NONE', *, *, #60, .F. ) ;
#28 = DIRECTION ( 'NONE',  ( -1.000000000000000000, -0.0000000000000000000, -0.0000000000000000000 ) ) ;
#29 = CC_DESIGN_APPROVAL ( #197, ( #128 ) ) ;
#30 = PERSON_AND_ORGANIZATION ( #8, #84 ) ;
#31 = LINE ( 'NONE', #236, #204 ) ;
#32 = DIRECTION ( 'NONE',  ( -0.0000000000000000000, 0.0000000000000000000, 1.000000000000000000 ) ) ;
#33 = PERSON_AND_ORGANIZATION ( #8, #84 ) ;
#34 = DIRECTION ( 'NONE',  ( -0.0000000000000000000, -2.775557561562891400E-016, 1.000000000000000000 ) ) ;
#35 = LINE ( 'NONE', #155, #171 ) ;
#36 = DIRECTION ( 'NONE',  ( 1.000000000000000000, 0.0000000000000000000, 0.0000000000000000000 ) ) ;
#37 = CARTESIAN_POINT ( 'NONE',  ( 4.750000000000000000, 12.49999999999999300, 12.50000000000000000 ) ) ;
#38 = ADVANCED_FACE ( 'NONE', ( #150 ), #211, .T. ) ;
#39 = CARTESIAN_POINT ( 'NONE',  ( 0.0000000000000000000, 0.0000000000000000000, 0.0000000000000000000 ) ) ;
#40 = APPROVAL_ROLE ( '' ) ;
#41 = DATE_AND_TIME ( #202, #66 ) ;
#42 = SHAPE_DEFINITION_REPRESENTATION ( #103, #131 ) ;
#43 = VECTOR ( 'NONE', #226, 1000.000000000000000 ) ;
#44 = EDGE_CURVE ( 'NONE', #217, #19, #85, .T. ) ;
#45 = SECURITY_CLASSIFICATION_LEVEL ( 'unclassified' ) ;
#46 = AXIS2_PLACEMENT_3D ( 'NONE', #39, #127, #36 ) ;
#47 = VECTOR ( 'NONE', #123, 1000.000000000000000 ) ;
#48 = VECTOR ( 'NONE', #34, 1000.000000000000000 ) ;
#49 = VECTOR ( 'NONE', #70, 1000.000000000000000 ) ;
#50 = PERSON_AND_ORGANIZATION ( #8, #84 ) ;
#51 = EDGE_LOOP ( 'NONE', ( #129, #189, #57, #159 ) ) ;
#52 = EDGE_CURVE ( 'NONE', #102, #19, #79, .T. ) ;
#53 = CARTESIAN_POINT ( 'NONE',  ( -4.750000000000000000, 12.49999999999999300, 12.50000000000000000 ) ) ;
#54 = EDGE_CURVE ( 'NONE', #73, #208, #35, .T. ) ;
#55 = APPROVAL_STATUS ( 'not_yet_approved' ) ;
#56 = CARTESIAN_POINT ( 'NONE',  ( -4.750000000000000000, 12.49999999999999300, 12.50000000000000000 ) ) ;
#57 = ORIENTED_EDGE ( 'NONE', *, *, #24, .F. ) ;
#58 = PLANE ( 'NONE',  #219 ) ;
#59 = DATE_AND_TIME ( #71, #87 ) ;
#60 = EDGE_CURVE ( 'NONE', #157, #102, #118, .T. ) ;
#61 = CC_DESIGN_DATE_AND_TIME_ASSIGNMENT ( #222, #218, ( #225 ) ) ;
#62 = APPROVAL_ROLE ( '' ) ;
#63 = CC_DESIGN_APPROVAL ( #142, ( #233 ) ) ;
#64 = FACE_OUTER_BOUND ( 'NONE', #126, .T. ) ;
#65 = EDGE_CURVE ( 'NONE', #102, #73, #141, .T. ) ;
#66 = LOCAL_TIME ( 16, 51, 2.000000000000000000, #83 ) ;
#67 = ORIENTED_EDGE ( 'NONE', *, *, #24, .T. ) ;
#68 = CARTESIAN_POINT ( 'NONE',  ( 4.750000000000000000, 12.49999999999999300, 12.50000000000000000 ) ) ;
#69 = EDGE_CURVE ( 'NONE', #221, #157, #22, .T. ) ;
#70 = DIRECTION ( 'NONE',  ( -0.0000000000000000000, 1.000000000000000000, -0.0000000000000000000 ) ) ;
#71 = CALENDAR_DATE ( 2018, 12, 3 ) ;
#72 = PERSON_AND_ORGANIZATION ( #8, #84 ) ;
#73 = VERTEX_POINT ( 'NONE', #26 ) ;
#74 = DIRECTION ( 'NONE',  ( -0.0000000000000000000, 1.000000000000000000, -0.0000000000000000000 ) ) ;
#75 = PERSON_AND_ORGANIZATION ( #8, #84 ) ;
#76 = ORIENTED_EDGE ( 'NONE', *, *, #60, .T. ) ;
#77 = ADVANCED_FACE ( 'NONE', ( #82 ), #183, .F. ) ;
#78 = EDGE_CURVE ( 'NONE', #19, #208, #4, .T. ) ;
#79 = LINE ( 'NONE', #10, #43 ) ;
#80 = PERSON_AND_ORGANIZATION_ROLE ( 'creator' ) ;
#81 = PERSON_AND_ORGANIZATION ( #8, #84 ) ;
#82 = FACE_OUTER_BOUND ( 'NONE', #51, .T. ) ;
#83 = COORDINATED_UNIVERSAL_TIME_OFFSET ( 5, 0, .BEHIND. ) ;
#84 = ORGANIZATION ( 'UNSPECIFIED', 'UNSPECIFIED', '' ) ;
#85 = LINE ( 'NONE', #179, #49 ) ;
#86 = CLOSED_SHELL ( 'NONE', ( #77, #147, #110, #200, #38, #203 ) ) ;
#87 = LOCAL_TIME ( 16, 51, 2.000000000000000000, #99 ) ;
#88 = CARTESIAN_POINT ( 'NONE',  ( -4.750000000000000000, -12.50000000000000000, 12.50000000000000000 ) ) ;
#89 = VECTOR ( 'NONE', #106, 1000.000000000000000 ) ;
#90 = ORIENTED_EDGE ( 'NONE', *, *, #69, .F. ) ;
#91 = CARTESIAN_POINT ( 'NONE',  ( 4.750000000000000000, -12.50000000000000000, -12.50000000000000000 ) ) ;
#92 = AXIS2_PLACEMENT_3D ( 'NONE', #144, #201, #94 ) ;
#93 = PERSON_AND_ORGANIZATION ( #8, #84 ) ;
#94 = DIRECTION ( 'NONE',  ( 0.0000000000000000000, -0.0000000000000000000, 1.000000000000000000 ) ) ;
#95 = ORIENTED_EDGE ( 'NONE', *, *, #44, .F. ) ;
#96 = APPLICATION_PROTOCOL_DEFINITION ( 'international standard', 'config_control_design', 1994, #168 ) ;
#97 = VECTOR ( 'NONE', #153, 1000.000000000000000 ) ;
#98 = PERSON_AND_ORGANIZATION_ROLE ( 'classification_officer' ) ;
#99 = COORDINATED_UNIVERSAL_TIME_OFFSET ( 5, 0, .BEHIND. ) ;
#100 = ORIENTED_EDGE ( 'NONE', *, *, #65, .F. ) ;
#101 = EDGE_LOOP ( 'NONE', ( #181, #139, #27, #13 ) ) ;
#102 = VERTEX_POINT ( 'NONE', #108 ) ;
#103 = PRODUCT_DEFINITION_SHAPE ( 'NONE', 'NONE',  #225 ) ;
#104 = AXIS2_PLACEMENT_3D ( 'NONE', #37, #1, #165 ) ;
#105 = LINE ( 'NONE', #177, #138 ) ;
#106 = DIRECTION ( 'NONE',  ( 0.0000000000000000000, 0.0000000000000000000, -1.000000000000000000 ) ) ;
#107 = CC_DESIGN_SECURITY_CLASSIFICATION ( #128, ( #233 ) ) ;
#108 = CARTESIAN_POINT ( 'NONE',  ( 4.750000000000000000, 12.50000000000000000, -12.50000000000000000 ) ) ;
#109 = PLANE ( 'NONE',  #216 ) ;
#110 = ADVANCED_FACE ( 'NONE', ( #188 ), #109, .F. ) ;
#111 = PERSON_AND_ORGANIZATION_ROLE ( 'design_owner' ) ;
#112 = FACE_OUTER_BOUND ( 'NONE', #125, .T. ) ;
#113 = ORIENTED_EDGE ( 'NONE', *, *, #78, .F. ) ;
#114 = CARTESIAN_POINT ( 'NONE',  ( 4.750000000000000000, -12.50000000000000000, 12.50000000000000000 ) ) ;
#115 = ORIENTED_EDGE ( 'NONE', *, *, #16, .T. ) ;
#116 = APPROVAL ( #55, 'UNSPECIFIED' ) ;
#117 = COORDINATED_UNIVERSAL_TIME_OFFSET ( 5, 0, .BEHIND. ) ;
#118 = LINE ( 'NONE', #178, #192 ) ;
#119 = CARTESIAN_POINT ( 'NONE',  ( 4.750000000000000000, 0.0000000000000000000, 0.0000000000000000000 ) ) ;
#120 = LOCAL_TIME ( 16, 51, 2.000000000000000000, #3 ) ;
#121 = DIRECTION ( 'NONE',  ( -1.000000000000000000, -0.0000000000000000000, -0.0000000000000000000 ) ) ;
#122 = VERTEX_POINT ( 'NONE', #199 ) ;
#123 = DIRECTION ( 'NONE',  ( -1.000000000000000000, -0.0000000000000000000, -0.0000000000000000000 ) ) ;
#124 = APPROVAL_PERSON_ORGANIZATION ( #228, #197, #62 ) ;
#125 = EDGE_LOOP ( 'NONE', ( #115, #213, #90, #176 ) ) ;
#126 = EDGE_LOOP ( 'NONE', ( #237, #113, #95, #195 ) ) ;
#127 = DIRECTION ( 'NONE',  ( 0.0000000000000000000, 0.0000000000000000000, 1.000000000000000000 ) ) ;
#128 = SECURITY_CLASSIFICATION ( '', '', #45 ) ;
#129 = ORIENTED_EDGE ( 'NONE', *, *, #196, .T. ) ;
#130 = APPROVAL_STATUS ( 'not_yet_approved' ) ;
#131 = ADVANCED_BREP_SHAPE_REPRESENTATION ( 'Web Model 43848_46080', ( #149, #46 ), #231 ) ;
#132 = CALENDAR_DATE ( 2018, 12, 3 ) ;
#133 = EDGE_LOOP ( 'NONE', ( #67, #210, #76, #137 ) ) ;
#134 = CC_DESIGN_APPROVAL ( #116, ( #225 ) ) ;
#135 = ORIENTED_EDGE ( 'NONE', *, *, #78, .T. ) ;
#136 = FACE_OUTER_BOUND ( 'NONE', #185, .T. ) ;
#137 = ORIENTED_EDGE ( 'NONE', *, *, #65, .T. ) ;
#138 = VECTOR ( 'NONE', #230, 1000.000000000000000 ) ;
#139 = ORIENTED_EDGE ( 'NONE', *, *, #52, .F. ) ;
#140 = AXIS2_PLACEMENT_3D ( 'NONE', #119, #9, #227 ) ;
#141 = LINE ( 'NONE', #68, #97 ) ;
#142 = APPROVAL ( #130, 'UNSPECIFIED' ) ;
#143 = PLANE ( 'NONE',  #104 ) ;
#144 = CARTESIAN_POINT ( 'NONE',  ( 4.750000000000000000, -12.50000000000000000, 12.50000000000000000 ) ) ;
#145 = EDGE_CURVE ( 'NONE', #221, #122, #31, .T. ) ;
#146 = CARTESIAN_POINT ( 'NONE',  ( -4.750000000000000000, -12.50000000000000000, -12.50000000000000000 ) ) ;
#147 = ADVANCED_FACE ( 'NONE', ( #112 ), #158, .F. ) ;
#148 = DATE_TIME_ROLE ( 'classification_date' ) ;
#149 = MANIFOLD_SOLID_BREP ( 'Boss-Extrude1', #86 ) ;
#150 = FACE_OUTER_BOUND ( 'NONE', #133, .T. ) ;
#151 = PERSON_AND_ORGANIZATION_ROLE ( 'design_supplier' ) ;
#152 = LINE ( 'NONE', #53, #223 ) ;
#153 = DIRECTION ( 'NONE',  ( -0.0000000000000000000, -2.775557561562891400E-016, 1.000000000000000000 ) ) ;
#154 = EDGE_CURVE ( 'NONE', #157, #217, #174, .T. ) ;
#155 = CARTESIAN_POINT ( 'NONE',  ( 4.750000000000000000, 12.49999999999999300, 12.50000000000000000 ) ) ;
#156 = CC_DESIGN_PERSON_AND_ORGANIZATION_ASSIGNMENT ( #81, #80, ( #225 ) ) ;
#157 = VERTEX_POINT ( 'NONE', #91 ) ;
#158 = PLANE ( 'NONE',  #92 ) ;
#159 = ORIENTED_EDGE ( 'NONE', *, *, #54, .T. ) ;
#160 = CC_DESIGN_PERSON_AND_ORGANIZATION_ASSIGNMENT ( #30, #111, ( #23 ) ) ;
#161 = CARTESIAN_POINT ( 'NONE',  ( 4.750000000000000000, 12.50000000000000000, -12.50000000000000000 ) ) ;
#162 = APPLICATION_PROTOCOL_DEFINITION ( 'international standard', 'config_control_design', 1994, #17 ) ;
#163 = APPROVAL_DATE_TIME ( #21, #142 ) ;
#164 = UNCERTAINTY_MEASURE_WITH_UNIT (LENGTH_MEASURE( 1.000000000000000100E-005 ), #186, 'distance_accuracy_value', 'NONE');
#165 = DIRECTION ( 'NONE',  ( 0.0000000000000000000, 2.775557561562891400E-016, -1.000000000000000000 ) ) ;
#166 = PRODUCT_RELATED_PRODUCT_CATEGORY ( 'detail', '', ( #23 ) ) ;
#167 = LOCAL_TIME ( 16, 51, 2.000000000000000000, #215 ) ;
#168 = APPLICATION_CONTEXT ( 'configuration controlled 3d designs of mechanical parts and assemblies' ) ;
#169 = ORIENTED_EDGE ( 'NONE', *, *, #54, .F. ) ;
#170 = CC_DESIGN_PERSON_AND_ORGANIZATION_ASSIGNMENT ( #72, #172, ( #233 ) ) ;
#171 = VECTOR ( 'NONE', #28, 1000.000000000000000 ) ;
#172 = PERSON_AND_ORGANIZATION_ROLE ( 'creator' ) ;
#173 = CC_DESIGN_DATE_AND_TIME_ASSIGNMENT ( #41, #148, ( #128 ) ) ;
#174 = LINE ( 'NONE', #12, #47 ) ;
#175 = CALENDAR_DATE ( 2018, 12, 3 ) ;
#176 = ORIENTED_EDGE ( 'NONE', *, *, #145, .T. ) ;
#177 = CARTESIAN_POINT ( 'NONE',  ( 4.750000000000000000, 12.49999999999999300, 12.50000000000000000 ) ) ;
#178 = CARTESIAN_POINT ( 'NONE',  ( 4.750000000000000000, 12.50000000000000000, -12.50000000000000000 ) ) ;
#179 = CARTESIAN_POINT ( 'NONE',  ( -4.750000000000000000, 12.50000000000000000, -12.50000000000000000 ) ) ;
#180 = DIRECTION ( 'NONE',  ( 1.000000000000000000, 0.0000000000000000000, 0.0000000000000000000 ) ) ;
#181 = ORIENTED_EDGE ( 'NONE', *, *, #44, .T. ) ;
#182 = DIRECTION ( 'NONE',  ( 0.0000000000000000000, -1.000000000000000000, 0.0000000000000000000 ) ) ;
#183 = PLANE ( 'NONE',  #193 ) ;
#184 = CALENDAR_DATE ( 2018, 12, 3 ) ;
#185 = EDGE_LOOP ( 'NONE', ( #135, #169, #100, #224 ) ) ;
#186 =( LENGTH_UNIT ( ) NAMED_UNIT ( * ) SI_UNIT ( .MILLI., .METRE. ) );
#187 = APPROVAL_ROLE ( '' ) ;
#188 = FACE_OUTER_BOUND ( 'NONE', #101, .T. ) ;
#189 = ORIENTED_EDGE ( 'NONE', *, *, #145, .F. ) ;
#190 = LOCAL_TIME ( 16, 51, 2.000000000000000000, #117 ) ;
#191 = APPROVAL_STATUS ( 'not_yet_approved' ) ;
#192 = VECTOR ( 'NONE', #74, 1000.000000000000000 ) ;
#193 = AXIS2_PLACEMENT_3D ( 'NONE', #15, #234, #11 ) ;
#194 = CC_DESIGN_PERSON_AND_ORGANIZATION_ASSIGNMENT ( #93, #98, ( #128 ) ) ;
#195 = ORIENTED_EDGE ( 'NONE', *, *, #16, .F. ) ;
#196 = EDGE_CURVE ( 'NONE', #208, #122, #152, .T. ) ;
#197 = APPROVAL ( #191, 'UNSPECIFIED' ) ;
#198 = CARTESIAN_POINT ( 'NONE',  ( 4.750000000000000000, -12.50000000000000000, 12.50000000000000000 ) ) ;
#199 = CARTESIAN_POINT ( 'NONE',  ( -4.750000000000000000, -12.50000000000000000, 12.50000000000000000 ) ) ;
#200 = ADVANCED_FACE ( 'NONE', ( #136 ), #143, .F. ) ;
#201 = DIRECTION ( 'NONE',  ( -0.0000000000000000000, 1.000000000000000000, 0.0000000000000000000 ) ) ;
#202 = CALENDAR_DATE ( 2018, 12, 3 ) ;
#203 = ADVANCED_FACE ( 'NONE', ( #64 ), #58, .F. ) ;
#204 = VECTOR ( 'NONE', #121, 1000.000000000000000 ) ;
#205 = DIRECTION ( 'NONE',  ( 1.000000000000000000, 0.0000000000000000000, 0.0000000000000000000 ) ) ;
#206 =( NAMED_UNIT ( * ) SI_UNIT ( $, .STERADIAN. ) SOLID_ANGLE_UNIT ( ) );
#207 = LINE ( 'NONE', #88, #89 ) ;
#208 = VERTEX_POINT ( 'NONE', #56 ) ;
#209 = APPROVAL_PERSON_ORGANIZATION ( #75, #142, #40 ) ;
#210 = ORIENTED_EDGE ( 'NONE', *, *, #69, .T. ) ;
#211 = PLANE ( 'NONE',  #140 ) ;
#212 = APPROVAL_PERSON_ORGANIZATION ( #50, #116, #187 ) ;
#213 = ORIENTED_EDGE ( 'NONE', *, *, #154, .F. ) ;
#214 = DESIGN_CONTEXT ( 'detailed design', #17, 'design' ) ;
#215 = COORDINATED_UNIVERSAL_TIME_OFFSET ( 5, 0, .BEHIND. ) ;
#216 = AXIS2_PLACEMENT_3D ( 'NONE', #161, #32, #180 ) ;
#217 = VERTEX_POINT ( 'NONE', #146 ) ;
#218 = DATE_TIME_ROLE ( 'creation_date' ) ;
#219 = AXIS2_PLACEMENT_3D ( 'NONE', #220, #205, #20 ) ;
#220 = CARTESIAN_POINT ( 'NONE',  ( -4.750000000000000000, 0.0000000000000000000, 0.0000000000000000000 ) ) ;
#221 = VERTEX_POINT ( 'NONE', #114 ) ;
#222 = DATE_AND_TIME ( #132, #167 ) ;
#223 = VECTOR ( 'NONE', #182, 1000.000000000000000 ) ;
#224 = ORIENTED_EDGE ( 'NONE', *, *, #52, .T. ) ;
#225 = PRODUCT_DEFINITION ( 'UNKNOWN', '', #233, #214 ) ;
#226 = DIRECTION ( 'NONE',  ( -1.000000000000000000, -0.0000000000000000000, -0.0000000000000000000 ) ) ;
#227 = DIRECTION ( 'NONE',  ( 0.0000000000000000000, 0.0000000000000000000, -1.000000000000000000 ) ) ;
#228 = PERSON_AND_ORGANIZATION ( #8, #84 ) ;
#229 = DATE_AND_TIME ( #175, #120 ) ;
#230 = DIRECTION ( 'NONE',  ( 0.0000000000000000000, -1.000000000000000000, 0.0000000000000000000 ) ) ;
#231 =( GEOMETRIC_REPRESENTATION_CONTEXT ( 3 ) GLOBAL_UNCERTAINTY_ASSIGNED_CONTEXT ( ( #164 ) ) GLOBAL_UNIT_ASSIGNED_CONTEXT ( ( #186, #2, #206 ) ) REPRESENTATION_CONTEXT ( 'NONE', 'WORKASPACE' ) );
#232 = CC_DESIGN_PERSON_AND_ORGANIZATION_ASSIGNMENT ( #33, #151, ( #233 ) ) ;
#233 = PRODUCT_DEFINITION_FORMATION_WITH_SPECIFIED_SOURCE ( 'ANY', '', #23, .NOT_KNOWN. ) ;
#234 = DIRECTION ( 'NONE',  ( 0.0000000000000000000, 0.0000000000000000000, -1.000000000000000000 ) ) ;
#235 = VECTOR ( 'NONE', #7, 1000.000000000000000 ) ;
#236 = CARTESIAN_POINT ( 'NONE',  ( 4.750000000000000000, -12.50000000000000000, 12.50000000000000000 ) ) ;
#237 = ORIENTED_EDGE ( 'NONE', *, *, #196, .F. ) ;
ENDSEC;
END-ISO-10303-21;
