ISO-10303-21;
HEADER;
FILE_DESCRIPTION (( 'STEP AP203' ),
    '1' );
FILE_NAME ('Web Model 43636_20834.step',
    '2022-03-16T15:36:44',
    ( '' ),
    ( '' ),
    'SwSTEP 2.0',
    'SolidWorks 2021',
    '' );
FILE_SCHEMA (( 'CONFIG_CONTROL_DESIGN' ));
ENDSEC;

DATA;
#1 = PERSON_AND_ORGANIZATION_ROLE ( 'design_owner' ) ;
#2 = CC_DESIGN_PERSON_AND_ORGANIZATION_ASSIGNMENT ( #140, #69, ( #12 ) ) ;
#3 = LINE ( 'NONE', #26, #100 ) ;
#4 = COORDINATED_UNIVERSAL_TIME_OFFSET ( 5, 0, .BEHIND. ) ;
#5 = PRODUCT ( 'Web Model 43636_20834', 'Web Model 43636_20834', '', ( #67 ) ) ;
#6 = ADVANCED_BREP_SHAPE_REPRESENTATION ( 'Web Model 43636_20834', ( #115, #103 ), #128 ) ;
#7 = DIRECTION ( 'NONE',  ( 0.000000000000000000, 0.000000000000000000, 1.000000000000000000 ) ) ;
#8 = LINE ( 'NONE', #122, #129 ) ;
#9 = LOCAL_TIME ( 11, 36, 44.00000000000000000, #160 ) ;
#10 = SECURITY_CLASSIFICATION_LEVEL ( 'unclassified' ) ;
#11 = EDGE_LOOP ( 'NONE', ( #147, #101, #24, #117 ) ) ;
#12 = SECURITY_CLASSIFICATION ( '', '', #10 ) ;
#13 = APPROVAL_STATUS ( 'not_yet_approved' ) ;
#14 = DIRECTION ( 'NONE',  ( 0.000000000000000000, 0.000000000000000000, 1.000000000000000000 ) ) ;
#15 = PERSON_AND_ORGANIZATION_ROLE ( 'creator' ) ;
#16 = DATE_TIME_ROLE ( 'classification_date' ) ;
#17 = APPLICATION_CONTEXT ( 'configuration controlled 3d designs of mechanical parts and assemblies' ) ;
#18 = AXIS2_PLACEMENT_3D ( 'NONE', #121, #14, #64 ) ;
#19 = ADVANCED_FACE ( 'NONE', ( #44 ), #159, .T. ) ;
#20 = DIRECTION ( 'NONE',  ( 1.000000000000000000, 0.000000000000000000, 0.000000000000000000 ) ) ;
#21 = PRODUCT_DEFINITION_FORMATION_WITH_SPECIFIED_SOURCE ( 'ANY', '', #5, .NOT_KNOWN. ) ;
#22 = CC_DESIGN_DATE_AND_TIME_ASSIGNMENT ( #30, #16, ( #12 ) ) ;
#23 = CIRCLE ( 'NONE', #126, 12.69999999999999929 ) ;
#24 = ORIENTED_EDGE ( 'NONE', *, *, #96, .T. ) ;
#25 = APPROVAL_STATUS ( 'not_yet_approved' ) ;
#26 = CARTESIAN_POINT ( 'NONE',  ( -12.69999999999999929, 0.000000000000000000, 0.5000000000000000000 ) ) ;
#27 = PERSON_AND_ORGANIZATION_ROLE ( 'design_supplier' ) ;
#28 = DIRECTION ( 'NONE',  ( 0.000000000000000000, 0.000000000000000000, 1.000000000000000000 ) ) ;
#29 = EDGE_CURVE ( 'NONE', #137, #131, #152, .T. ) ;
#30 = DATE_AND_TIME ( #65, #84 ) ;
#31 = CARTESIAN_POINT ( 'NONE',  ( 0.000000000000000000, 0.000000000000000000, 0.000000000000000000 ) ) ;
#32 = AXIS2_PLACEMENT_3D ( 'NONE', #145, #130, #20 ) ;
#33 = APPROVAL_DATE_TIME ( #93, #46 ) ;
#34 = CC_DESIGN_PERSON_AND_ORGANIZATION_ASSIGNMENT ( #148, #15, ( #61 ) ) ;
#35 = LOCAL_TIME ( 11, 36, 44.00000000000000000, #164 ) ;
#36 = LOCAL_TIME ( 11, 36, 44.00000000000000000, #4 ) ;
#37 = VERTEX_POINT ( 'NONE', #68 ) ;
#38 = APPROVAL ( #25, 'UNSPECIFIED' ) ;
#39 = APPLICATION_PROTOCOL_DEFINITION ( 'international standard', 'config_control_design', 1994, #17 ) ;
#40 = CALENDAR_DATE ( 2022, 16, 3 ) ;
#41 = VERTEX_POINT ( 'NONE', #70 ) ;
#42 = PRODUCT_DEFINITION_SHAPE ( 'NONE', 'NONE',  #61 ) ;
#43 = APPROVAL_ROLE ( '' ) ;
#44 = FACE_OUTER_BOUND ( 'NONE', #11, .T. ) ;
#45 = CALENDAR_DATE ( 2022, 16, 3 ) ;
#46 = APPROVAL ( #13, 'UNSPECIFIED' ) ;
#47 = CC_DESIGN_APPROVAL ( #46, ( #61 ) ) ;
#48 = ORGANIZATION ( 'UNSPECIFIED', 'UNSPECIFIED', '' ) ;
#49 = DIRECTION ( 'NONE',  ( 0.000000000000000000, 0.000000000000000000, 1.000000000000000000 ) ) ;
#50 = ORIENTED_EDGE ( 'NONE', *, *, #109, .F. ) ;
#51 = DATE_AND_TIME ( #77, #104 ) ;
#52 = ORIENTED_EDGE ( 'NONE', *, *, #109, .T. ) ;
#53 = APPROVAL_ROLE ( '' ) ;
#54 = EDGE_LOOP ( 'NONE', ( #50, #91, #139, #123 ) ) ;
#55 = DATE_AND_TIME ( #40, #9 ) ;
#56 = CARTESIAN_POINT ( 'NONE',  ( 0.000000000000000000, 0.000000000000000000, 0.000000000000000000 ) ) ;
#57 = PERSON_AND_ORGANIZATION ( #89, #48 ) ;
#58 = AXIS2_PLACEMENT_3D ( 'NONE', #151, #94, #149 ) ;
#59 = PERSON_AND_ORGANIZATION ( #89, #48 ) ;
#60 = SHAPE_DEFINITION_REPRESENTATION ( #42, #6 ) ;
#61 = PRODUCT_DEFINITION ( 'UNKNOWN', '', #21, #165 ) ;
#62 = ADVANCED_FACE ( 'NONE', ( #146 ), #174, .F. ) ;
#63 =( NAMED_UNIT ( * ) PLANE_ANGLE_UNIT ( ) SI_UNIT ( $, .RADIAN. ) );
#64 = DIRECTION ( 'NONE',  ( 1.000000000000000000, 0.000000000000000000, 0.000000000000000000 ) ) ;
#65 = CALENDAR_DATE ( 2022, 16, 3 ) ;
#66 = CC_DESIGN_APPROVAL ( #116, ( #12 ) ) ;
#67 = MECHANICAL_CONTEXT ( 'NONE', #17, 'mechanical' ) ;
#68 = CARTESIAN_POINT ( 'NONE',  ( -12.69999999999999929, 0.000000000000000000, 0.000000000000000000 ) ) ;
#69 = PERSON_AND_ORGANIZATION_ROLE ( 'classification_officer' ) ;
#70 = CARTESIAN_POINT ( 'NONE',  ( 12.69999999999999929, 1.555301434917138433E-15, 0.000000000000000000 ) ) ;
#71 = EDGE_CURVE ( 'NONE', #41, #37, #163, .T. ) ;
#72 = CIRCLE ( 'NONE', #32, 12.69999999999999929 ) ;
#73 = CC_DESIGN_PERSON_AND_ORGANIZATION_ASSIGNMENT ( #57, #27, ( #21 ) ) ;
#74 = APPROVAL_PERSON_ORGANIZATION ( #107, #116, #124 ) ;
#75 = CYLINDRICAL_SURFACE ( 'NONE', #119, 12.69999999999999929 ) ;
#76 = CARTESIAN_POINT ( 'NONE',  ( 0.000000000000000000, 0.000000000000000000, 0.5000000000000000000 ) ) ;
#77 = CALENDAR_DATE ( 2022, 16, 3 ) ;
#78 = CARTESIAN_POINT ( 'NONE',  ( 12.69999999999999929, 1.555301434917138433E-15, 0.5000000000000000000 ) ) ;
#79 = DIRECTION ( 'NONE',  ( -0.000000000000000000, -0.000000000000000000, -1.000000000000000000 ) ) ;
#80 = APPROVAL_STATUS ( 'not_yet_approved' ) ;
#81 = DIRECTION ( 'NONE',  ( 1.000000000000000000, 0.000000000000000000, 0.000000000000000000 ) ) ;
#82 = APPROVAL_DATE_TIME ( #51, #38 ) ;
#83 = CC_DESIGN_APPROVAL ( #38, ( #21 ) ) ;
#84 = LOCAL_TIME ( 11, 36, 44.00000000000000000, #114 ) ;
#85 = APPROVAL_PERSON_ORGANIZATION ( #161, #38, #43 ) ;
#86 = AXIS2_PLACEMENT_3D ( 'NONE', #56, #49, #105 ) ;
#87 = CC_DESIGN_PERSON_AND_ORGANIZATION_ASSIGNMENT ( #154, #1, ( #5 ) ) ;
#88 = APPLICATION_CONTEXT ( 'configuration controlled 3d designs of mechanical parts and assemblies' ) ;
#89 = PERSON ( 'UNSPECIFIED', 'UNSPECIFIED', 'UNSPECIFIED', ('UNSPECIFIED'), ('UNSPECIFIED'), ('UNSPECIFIED') ) ;
#90 = DIRECTION ( 'NONE',  ( -1.000000000000000000, 0.000000000000000000, 0.000000000000000000 ) ) ;
#91 = ORIENTED_EDGE ( 'NONE', *, *, #127, .T. ) ;
#92 = ADVANCED_FACE ( 'NONE', ( #125 ), #158, .T. ) ;
#93 = DATE_AND_TIME ( #112, #35 ) ;
#94 = DIRECTION ( 'NONE',  ( -0.000000000000000000, -0.000000000000000000, -1.000000000000000000 ) ) ;
#95 = PERSON_AND_ORGANIZATION ( #89, #48 ) ;
#96 = EDGE_CURVE ( 'NONE', #137, #37, #3, .T. ) ;
#97 = CC_DESIGN_PERSON_AND_ORGANIZATION_ASSIGNMENT ( #95, #150, ( #21 ) ) ;
#98 = DATE_TIME_ROLE ( 'creation_date' ) ;
#99 = ORIENTED_EDGE ( 'NONE', *, *, #142, .F. ) ;
#100 = VECTOR ( 'NONE', #79, 1000.000000000000000 ) ;
#101 = ORIENTED_EDGE ( 'NONE', *, *, #29, .F. ) ;
#102 = FACE_OUTER_BOUND ( 'NONE', #54, .T. ) ;
#103 = AXIS2_PLACEMENT_3D ( 'NONE', #133, #7, #136 ) ;
#104 = LOCAL_TIME ( 11, 36, 44.00000000000000000, #173 ) ;
#105 = DIRECTION ( 'NONE',  ( 1.000000000000000000, 0.000000000000000000, 0.000000000000000000 ) ) ;
#106 = EDGE_LOOP ( 'NONE', ( #99, #155 ) ) ;
#107 = PERSON_AND_ORGANIZATION ( #89, #48 ) ;
#108 = ORIENTED_EDGE ( 'NONE', *, *, #29, .T. ) ;
#109 = EDGE_CURVE ( 'NONE', #131, #137, #23, .T. ) ;
#110 = DATE_AND_TIME ( #45, #36 ) ;
#111 = DIRECTION ( 'NONE',  ( 0.000000000000000000, 0.000000000000000000, 1.000000000000000000 ) ) ;
#112 = CALENDAR_DATE ( 2022, 16, 3 ) ;
#113 = CARTESIAN_POINT ( 'NONE',  ( 0.000000000000000000, 0.000000000000000000, 0.5000000000000000000 ) ) ;
#114 = COORDINATED_UNIVERSAL_TIME_OFFSET ( 5, 0, .BEHIND. ) ;
#115 = MANIFOLD_SOLID_BREP ( 'Boss-Extrude1', #157 ) ;
#116 = APPROVAL ( #80, 'UNSPECIFIED' ) ;
#117 = ORIENTED_EDGE ( 'NONE', *, *, #142, .T. ) ;
#118 = AXIS2_PLACEMENT_3D ( 'NONE', #31, #28, #170 ) ;
#119 = AXIS2_PLACEMENT_3D ( 'NONE', #168, #132, #90 ) ;
#120 =( LENGTH_UNIT ( ) NAMED_UNIT ( * ) SI_UNIT ( .MILLI., .METRE. ) );
#121 = CARTESIAN_POINT ( 'NONE',  ( 0.000000000000000000, 0.000000000000000000, 0.5000000000000000000 ) ) ;
#122 = CARTESIAN_POINT ( 'NONE',  ( 12.69999999999999929, 1.555301434917138433E-15, 0.5000000000000000000 ) ) ;
#123 = ORIENTED_EDGE ( 'NONE', *, *, #96, .F. ) ;
#124 = APPROVAL_ROLE ( '' ) ;
#125 = FACE_OUTER_BOUND ( 'NONE', #143, .T. ) ;
#126 = AXIS2_PLACEMENT_3D ( 'NONE', #113, #111, #81 ) ;
#127 = EDGE_CURVE ( 'NONE', #131, #41, #8, .T. ) ;
#128 =( GEOMETRIC_REPRESENTATION_CONTEXT ( 3 ) GLOBAL_UNCERTAINTY_ASSIGNED_CONTEXT ( ( #156 ) ) GLOBAL_UNIT_ASSIGNED_CONTEXT ( ( #120, #63, #144 ) ) REPRESENTATION_CONTEXT ( 'NONE', 'WORKASPACE' ) );
#129 = VECTOR ( 'NONE', #171, 1000.000000000000000 ) ;
#130 = DIRECTION ( 'NONE',  ( 0.000000000000000000, 0.000000000000000000, 1.000000000000000000 ) ) ;
#131 = VERTEX_POINT ( 'NONE', #78 ) ;
#132 = DIRECTION ( 'NONE',  ( -0.000000000000000000, -0.000000000000000000, -1.000000000000000000 ) ) ;
#133 = CARTESIAN_POINT ( 'NONE',  ( 0.000000000000000000, 0.000000000000000000, 0.000000000000000000 ) ) ;
#134 = DIRECTION ( 'NONE',  ( 1.000000000000000000, 0.000000000000000000, -0.000000000000000000 ) ) ;
#135 = CARTESIAN_POINT ( 'NONE',  ( -12.69999999999999929, 0.000000000000000000, 0.5000000000000000000 ) ) ;
#136 = DIRECTION ( 'NONE',  ( 1.000000000000000000, 0.000000000000000000, 0.000000000000000000 ) ) ;
#137 = VERTEX_POINT ( 'NONE', #135 ) ;
#138 = APPLICATION_PROTOCOL_DEFINITION ( 'international standard', 'config_control_design', 1994, #88 ) ;
#139 = ORIENTED_EDGE ( 'NONE', *, *, #71, .T. ) ;
#140 = PERSON_AND_ORGANIZATION ( #89, #48 ) ;
#141 = PRODUCT_RELATED_PRODUCT_CATEGORY ( 'detail', '', ( #5 ) ) ;
#142 = EDGE_CURVE ( 'NONE', #37, #41, #72, .T. ) ;
#143 = EDGE_LOOP ( 'NONE', ( #108, #52 ) ) ;
#144 =( NAMED_UNIT ( * ) SI_UNIT ( $, .STERADIAN. ) SOLID_ANGLE_UNIT ( ) );
#145 = CARTESIAN_POINT ( 'NONE',  ( 0.000000000000000000, 0.000000000000000000, 0.000000000000000000 ) ) ;
#146 = FACE_OUTER_BOUND ( 'NONE', #106, .T. ) ;
#147 = ORIENTED_EDGE ( 'NONE', *, *, #127, .F. ) ;
#148 = PERSON_AND_ORGANIZATION ( #89, #48 ) ;
#149 = DIRECTION ( 'NONE',  ( -1.000000000000000000, 0.000000000000000000, 0.000000000000000000 ) ) ;
#150 = PERSON_AND_ORGANIZATION_ROLE ( 'creator' ) ;
#151 = CARTESIAN_POINT ( 'NONE',  ( 0.000000000000000000, 0.000000000000000000, 0.5000000000000000000 ) ) ;
#152 = CIRCLE ( 'NONE', #18, 12.69999999999999929 ) ;
#153 = APPROVAL_PERSON_ORGANIZATION ( #59, #46, #53 ) ;
#154 = PERSON_AND_ORGANIZATION ( #89, #48 ) ;
#155 = ORIENTED_EDGE ( 'NONE', *, *, #71, .F. ) ;
#156 = UNCERTAINTY_MEASURE_WITH_UNIT (LENGTH_MEASURE( 1.000000000000000082E-05 ), #120, 'distance_accuracy_value', 'NONE');
#157 = CLOSED_SHELL ( 'NONE', ( #169, #19, #92, #62 ) ) ;
#158 = PLANE ( 'NONE',  #167 ) ;
#159 = CYLINDRICAL_SURFACE ( 'NONE', #58, 12.69999999999999929 ) ;
#160 = COORDINATED_UNIVERSAL_TIME_OFFSET ( 5, 0, .BEHIND. ) ;
#161 = PERSON_AND_ORGANIZATION ( #89, #48 ) ;
#162 = APPROVAL_DATE_TIME ( #55, #116 ) ;
#163 = CIRCLE ( 'NONE', #86, 12.69999999999999929 ) ;
#164 = COORDINATED_UNIVERSAL_TIME_OFFSET ( 5, 0, .BEHIND. ) ;
#165 = DESIGN_CONTEXT ( 'detailed design', #88, 'design' ) ;
#166 = CC_DESIGN_DATE_AND_TIME_ASSIGNMENT ( #110, #98, ( #61 ) ) ;
#167 = AXIS2_PLACEMENT_3D ( 'NONE', #76, #175, #134 ) ;
#168 = CARTESIAN_POINT ( 'NONE',  ( 0.000000000000000000, 0.000000000000000000, 0.5000000000000000000 ) ) ;
#169 = ADVANCED_FACE ( 'NONE', ( #102 ), #75, .T. ) ;
#170 = DIRECTION ( 'NONE',  ( 1.000000000000000000, 0.000000000000000000, -0.000000000000000000 ) ) ;
#171 = DIRECTION ( 'NONE',  ( -0.000000000000000000, -0.000000000000000000, -1.000000000000000000 ) ) ;
#172 = CC_DESIGN_SECURITY_CLASSIFICATION ( #12, ( #21 ) ) ;
#173 = COORDINATED_UNIVERSAL_TIME_OFFSET ( 5, 0, .BEHIND. ) ;
#174 = PLANE ( 'NONE',  #118 ) ;
#175 = DIRECTION ( 'NONE',  ( 0.000000000000000000, 0.000000000000000000, 1.000000000000000000 ) ) ;
ENDSEC;
END-ISO-10303-21;
