ISO-10303-21;
HEADER;
FILE_DESCRIPTION (( 'STEP AP214' ),
    '1' );
FILE_NAME ('3452-E0W.STEP',
    '2009-12-21T16:59:34',
    ( ' ' ),
    ( ' ' ),
    'SwSTEP 2.0',
    'SolidWorks 2009',
    '' );
FILE_SCHEMA (( 'AUTOMOTIVE_DESIGN' ));
ENDSEC;

DATA;
#1 = DIRECTION ( 'NONE',  ( 1.000000000000000000, 0.0000000000000000000, 0.0000000000000000000 ) ) ;
#2 = PRESENTATION_LAYER_ASSIGNMENT (  '', '', ( #16 ) ) ;
#3 = CARTESIAN_POINT ( 'NONE',  ( -1.555250069354419300E-015, -12.70000000000000100, -0.02891466103421228700 ) ) ;
#4 = DIRECTION ( 'NONE',  ( -0.0000000000000000000, -0.0000000000000000000, 1.000000000000000000 ) ) ;
#5 = AXIS2_PLACEMENT_3D ( 'NONE', #7, #4, #10 ) ;
#6 = CIRCLE ( 'NONE', #5, 12.70000000000000100 ) ;
#7 = CARTESIAN_POINT ( 'NONE',  ( 0.0000000000000000000, 0.0000000000000000000, -2.008538742559577100 ) ) ;
#8 = MECHANICAL_DESIGN_GEOMETRIC_PRESENTATION_REPRESENTATION (  '', ( #16 ), #14 ) ;
#9 =( LENGTH_UNIT ( ) NAMED_UNIT ( * ) SI_UNIT ( .MILLI., .METRE. ) );
#10 = DIRECTION ( 'NONE',  ( 1.000000000000000000, 0.0000000000000000000, 0.0000000000000000000 ) ) ;
#11 = UNCERTAINTY_MEASURE_WITH_UNIT (LENGTH_MEASURE( 1.000000000000000100E-005 ), #9, 'distance_accuracy_value', 'NONE');
#12 =( NAMED_UNIT ( * ) SI_UNIT ( $, .STERADIAN. ) SOLID_ANGLE_UNIT ( ) );
#13 =( NAMED_UNIT ( * ) PLANE_ANGLE_UNIT ( ) SI_UNIT ( $, .RADIAN. ) );
#14 =( GEOMETRIC_REPRESENTATION_CONTEXT ( 3 ) GLOBAL_UNCERTAINTY_ASSIGNED_CONTEXT ( ( #11 ) ) GLOBAL_UNIT_ASSIGNED_CONTEXT ( ( #9, #13, #12 ) ) REPRESENTATION_CONTEXT ( 'NONE', 'WORKASPACE' ) );
#15 = FILL_AREA_STYLE ('',( #23 ) ) ;
#16 = STYLED_ITEM ( 'NONE', ( #17 ), #276 ) ;
#17 = PRESENTATION_STYLE_ASSIGNMENT (( #18 ) ) ;
#18 = SURFACE_STYLE_USAGE ( .BOTH. , #19 ) ;
#19 = SURFACE_SIDE_STYLE ('',( #20 ) ) ;
#20 = SURFACE_STYLE_FILL_AREA ( #15 ) ;
#21 = COLOUR_RGB ( '',0.9568627450980391500, 0.9490196078431372100, 0.9607843137254902200 ) ;
#22 = FACE_OUTER_BOUND ( 'NONE', #247, .T. ) ;
#23 = FILL_AREA_STYLE_COLOUR ( '', #21 ) ;
#24 = SPHERICAL_SURFACE ( 'NONE', #28, 106.9000000000000100 ) ;
#25 = DIRECTION ( 'NONE',  ( -0.0000000000000000000, -0.0000000000000000000, 1.000000000000000000 ) ) ;
#26 =( LENGTH_UNIT ( ) NAMED_UNIT ( * ) SI_UNIT ( .MILLI., .METRE. ) );
#27 = DIRECTION ( 'NONE',  ( 1.000000000000000000, 0.0000000000000000000, 0.0000000000000000000 ) ) ;
#28 = AXIS2_PLACEMENT_3D ( 'NONE', #31, #29, #30 ) ;
#29 = DIRECTION ( 'NONE',  ( -1.000000000000000000, 0.0000000000000000000, 0.0000000000000000000 ) ) ;
#30 = DIRECTION ( 'NONE',  ( 0.0000000000000000000, 1.000000000000000000, 0.0000000000000000000 ) ) ;
#31 = CARTESIAN_POINT ( 'NONE',  ( 0.0000000000000000000, 0.0000000000000000000, -108.1514612574404300 ) ) ;
#32 = CARTESIAN_POINT ( 'NONE',  ( 0.0000000000000000000, 2.485950898259426100E-015, 2.008538742559580600 ) ) ;
#33 = CIRCLE ( 'NONE', #34, 12.70000000000000100 ) ;
#34 = AXIS2_PLACEMENT_3D ( 'NONE', #35, #25, #27 ) ;
#35 = CARTESIAN_POINT ( 'NONE',  ( 0.0000000000000000000, 0.0000000000000000000, -0.02891466103421315400 ) ) ;
#36 = DIRECTION ( 'NONE',  ( 1.000000000000000000, 0.0000000000000000000, 0.0000000000000000000 ) ) ;
#37 = AXIS2_PLACEMENT_3D ( 'NONE', #38, #40, #36 ) ;
#38 = CARTESIAN_POINT ( 'NONE',  ( 0.0000000000000000000, 0.0000000000000000000, -0.02891466103421315400 ) ) ;
#39 = CIRCLE ( 'NONE', #37, 12.70000000000000100 ) ;
#40 = DIRECTION ( 'NONE',  ( -0.0000000000000000000, -0.0000000000000000000, 1.000000000000000000 ) ) ;
#41 = CIRCLE ( 'NONE', #50, 106.9000000000000200 ) ;
#42 = CARTESIAN_POINT ( 'NONE',  ( -1.555250069354418500E-015, -12.69999999999999200, -2.008538742559568200 ) ) ;
#43 = CARTESIAN_POINT ( 'NONE',  ( -12.70000000000000100, 1.555250069354419300E-015, -2.008538742559577100 ) ) ;
#44 = STYLED_ITEM ( 'NONE', ( #51 ), #297 ) ;
#45 = MECHANICAL_DESIGN_GEOMETRIC_PRESENTATION_REPRESENTATION (  '', ( #44 ), #202 ) ;
#46 = PRESENTATION_LAYER_ASSIGNMENT (  '', '', ( #44 ) ) ;
#47 = DIRECTION ( 'NONE',  ( 0.0000000000000000000, 0.0000000000000000000, -1.000000000000000000 ) ) ;
#48 = DIRECTION ( 'NONE',  ( 1.000000000000000000, -0.0000000000000000000, 0.0000000000000000000 ) ) ;
#49 = CARTESIAN_POINT ( 'NONE',  ( 0.0000000000000000000, 0.0000000000000000000, -108.1514612574404300 ) ) ;
#50 = AXIS2_PLACEMENT_3D ( 'NONE', #49, #48, #47 ) ;
#51 = PRESENTATION_STYLE_ASSIGNMENT (( #52 ) ) ;
#52 = SURFACE_STYLE_USAGE ( .BOTH. , #53 ) ;
#53 = SURFACE_SIDE_STYLE ('',( #54 ) ) ;
#54 = SURFACE_STYLE_FILL_AREA ( #55 ) ;
#55 = FILL_AREA_STYLE ('',( #56 ) ) ;
#56 = FILL_AREA_STYLE_COLOUR ( '', #57 ) ;
#57 = COLOUR_RGB ( '',0.9568627450980391500, 0.9490196078431372100, 0.9607843137254902200 ) ;
#58 = FACE_OUTER_BOUND ( 'NONE', #294, .T. ) ;
#59 = UNCERTAINTY_MEASURE_WITH_UNIT (LENGTH_MEASURE( 1.000000000000000100E-005 ), #26, 'distance_accuracy_value', 'NONE');
#60 =( NAMED_UNIT ( * ) SI_UNIT ( $, .STERADIAN. ) SOLID_ANGLE_UNIT ( ) );
#61 =( NAMED_UNIT ( * ) PLANE_ANGLE_UNIT ( ) SI_UNIT ( $, .RADIAN. ) );
#62 = SPHERICAL_SURFACE ( 'NONE', #112, 40.60000000000000100 ) ;
#63 = DIRECTION ( 'NONE',  ( 1.000000000000000000, 0.0000000000000000000, 0.0000000000000000000 ) ) ;
#64 = CIRCLE ( 'NONE', #74, 40.59999999999999400 ) ;
#65 = DIRECTION ( 'NONE',  ( 1.000000000000000000, 0.0000000000000000000, 0.0000000000000000000 ) ) ;
#66 = CIRCLE ( 'NONE', #91, 12.70000000000000100 ) ;
#67 =( NAMED_UNIT ( * ) PLANE_ANGLE_UNIT ( ) SI_UNIT ( $, .RADIAN. ) );
#68 = CYLINDRICAL_SURFACE ( 'NONE', #69, 12.70000000000000100 ) ;
#69 = AXIS2_PLACEMENT_3D ( 'NONE', #126, #125, #88 ) ;
#70 = CARTESIAN_POINT ( 'NONE',  ( 0.0000000000000000000, 0.0000000000000000000, -38.59146125744042200 ) ) ;
#71 = CIRCLE ( 'NONE', #124, 12.70000000000000100 ) ;
#72 = DIRECTION ( 'NONE',  ( 0.0000000000000000000, 0.0000000000000000000, -1.000000000000000000 ) ) ;
#73 = DIRECTION ( 'NONE',  ( 1.000000000000000000, 0.0000000000000000000, 0.0000000000000000000 ) ) ;
#74 = AXIS2_PLACEMENT_3D ( 'NONE', #96, #73, #72 ) ;
#75 = FILL_AREA_STYLE_COLOUR ( '', #76 ) ;
#76 = COLOUR_RGB ( '',0.9568627450980391500, 0.9490196078431372100, 0.9607843137254902200 ) ;
#77 = FILL_AREA_STYLE ('',( #75 ) ) ;
#78 = SURFACE_STYLE_FILL_AREA ( #77 ) ;
#79 = SURFACE_SIDE_STYLE ('',( #78 ) ) ;
#80 = SURFACE_STYLE_USAGE ( .BOTH. , #79 ) ;
#81 = PRESENTATION_STYLE_ASSIGNMENT (( #80 ) ) ;
#82 = STYLED_ITEM ( 'NONE', ( #81 ), #241 ) ;
#83 = PRESENTATION_LAYER_ASSIGNMENT (  '', '', ( #82 ) ) ;
#84 = MECHANICAL_DESIGN_GEOMETRIC_PRESENTATION_REPRESENTATION (  '', ( #82 ), #138 ) ;
#85 =( LENGTH_UNIT ( ) NAMED_UNIT ( * ) SI_UNIT ( .MILLI., .METRE. ) );
#86 = FACE_OUTER_BOUND ( 'NONE', #268, .T. ) ;
#87 = UNCERTAINTY_MEASURE_WITH_UNIT (LENGTH_MEASURE( 1.000000000000000100E-005 ), #85, 'distance_accuracy_value', 'NONE');
#88 = DIRECTION ( 'NONE',  ( 1.000000000000000000, 0.0000000000000000000, 0.0000000000000000000 ) ) ;
#89 = DIRECTION ( 'NONE',  ( -0.0000000000000000000, -0.0000000000000000000, 1.000000000000000000 ) ) ;
#90 = CARTESIAN_POINT ( 'NONE',  ( 0.0000000000000000000, 0.0000000000000000000, -0.02891466103421315400 ) ) ;
#91 = AXIS2_PLACEMENT_3D ( 'NONE', #90, #89, #63 ) ;
#92 =( NAMED_UNIT ( * ) SI_UNIT ( $, .STERADIAN. ) SOLID_ANGLE_UNIT ( ) );
#93 = DIRECTION ( 'NONE',  ( -0.0000000000000000000, -0.0000000000000000000, 1.000000000000000000 ) ) ;
#94 = AXIS2_PLACEMENT_3D ( 'NONE', #98, #93, #65 ) ;
#95 = CIRCLE ( 'NONE', #94, 12.70000000000000100 ) ;
#96 = CARTESIAN_POINT ( 'NONE',  ( 0.0000000000000000000, 0.0000000000000000000, -38.59146125744042200 ) ) ;
#97 = CARTESIAN_POINT ( 'NONE',  ( 0.0000000000000000000, 12.70000000000000100, -0.02891466103421228700 ) ) ;
#98 = CARTESIAN_POINT ( 'NONE',  ( 0.0000000000000000000, 0.0000000000000000000, -2.008538742559577100 ) ) ;
#99 = CARTESIAN_POINT ( 'NONE',  ( 12.70000000000000100, 0.0000000000000000000, -2.008538742559577100 ) ) ;
#100 = CARTESIAN_POINT ( 'NONE',  ( 12.70000000000000100, 0.0000000000000000000, -0.02891466103421315400 ) ) ;
#101 = DIRECTION ( 'NONE',  ( -1.000000000000000000, 0.0000000000000000000, 0.0000000000000000000 ) ) ;
#102 = CARTESIAN_POINT ( 'NONE',  ( 0.0000000000000000000, 0.0000000000000000000, -38.59146125744042200 ) ) ;
#103 = AXIS2_PLACEMENT_3D ( 'NONE', #102, #107, #106 ) ;
#104 =( LENGTH_UNIT ( ) NAMED_UNIT ( * ) SI_UNIT ( .MILLI., .METRE. ) );
#105 = MECHANICAL_DESIGN_GEOMETRIC_PRESENTATION_REPRESENTATION (  '', ( #140 ), #110 ) ;
#106 = DIRECTION ( 'NONE',  ( 0.0000000000000000000, 1.000000000000000000, 0.0000000000000000000 ) ) ;
#107 = DIRECTION ( 'NONE',  ( -1.000000000000000000, 0.0000000000000000000, 0.0000000000000000000 ) ) ;
#108 = CARTESIAN_POINT ( 'NONE',  ( 0.0000000000000000000, 6.545520961180607400E-015, -1.251461257440425400 ) ) ;
#109 = SPHERICAL_SURFACE ( 'NONE', #103, 40.60000000000000100 ) ;
#110 =( GEOMETRIC_REPRESENTATION_CONTEXT ( 3 ) GLOBAL_UNCERTAINTY_ASSIGNED_CONTEXT ( ( #144 ) ) GLOBAL_UNIT_ASSIGNED_CONTEXT ( ( #104, #111, #145 ) ) REPRESENTATION_CONTEXT ( 'NONE', 'WORKASPACE' ) );
#111 =( NAMED_UNIT ( * ) PLANE_ANGLE_UNIT ( ) SI_UNIT ( $, .RADIAN. ) );
#112 = AXIS2_PLACEMENT_3D ( 'NONE', #70, #101, #113 ) ;
#113 = DIRECTION ( 'NONE',  ( 0.0000000000000000000, 1.000000000000000000, 0.0000000000000000000 ) ) ;
#114 = VECTOR ( 'NONE', #137, 1000.000000000000000 ) ;
#115 = CARTESIAN_POINT ( 'NONE',  ( 12.70000000000000100, 0.0000000000000000000, 9.283642497400633100 ) ) ;
#116 = LINE ( 'NONE', #115, #114 ) ;
#117 = DIRECTION ( 'NONE',  ( -0.0000000000000000000, -0.0000000000000000000, 1.000000000000000000 ) ) ;
#118 = CARTESIAN_POINT ( 'NONE',  ( 0.0000000000000000000, 0.0000000000000000000, -2.008538742559577100 ) ) ;
#119 = AXIS2_PLACEMENT_3D ( 'NONE', #118, #117, #1 ) ;
#120 = CIRCLE ( 'NONE', #119, 12.70000000000000100 ) ;
#121 = DIRECTION ( 'NONE',  ( 1.000000000000000000, 0.0000000000000000000, 0.0000000000000000000 ) ) ;
#122 = DIRECTION ( 'NONE',  ( -0.0000000000000000000, -0.0000000000000000000, 1.000000000000000000 ) ) ;
#123 = CARTESIAN_POINT ( 'NONE',  ( 0.0000000000000000000, 0.0000000000000000000, -0.02891466103421315400 ) ) ;
#124 = AXIS2_PLACEMENT_3D ( 'NONE', #123, #122, #121 ) ;
#125 = DIRECTION ( 'NONE',  ( -0.0000000000000000000, -0.0000000000000000000, 1.000000000000000000 ) ) ;
#126 = CARTESIAN_POINT ( 'NONE',  ( 0.0000000000000000000, 0.0000000000000000000, 9.283642497400633100 ) ) ;
#127 = DIRECTION ( 'NONE',  ( -1.224606353822377300E-016, -1.000000000000000000, 0.0000000000000000000 ) ) ;
#128 = DIRECTION ( 'NONE',  ( -1.000000000000000000, 1.224606353822377300E-016, 0.0000000000000000000 ) ) ;
#129 = CARTESIAN_POINT ( 'NONE',  ( 0.0000000000000000000, 0.0000000000000000000, -38.59146125744042200 ) ) ;
#130 = AXIS2_PLACEMENT_3D ( 'NONE', #129, #128, #127 ) ;
#131 = CIRCLE ( 'NONE', #130, 40.60000000000000100 ) ;
#132 = FACE_OUTER_BOUND ( 'NONE', #240, .T. ) ;
#133 = SURFACE_STYLE_FILL_AREA ( #134 ) ;
#134 = FILL_AREA_STYLE ('',( #135 ) ) ;
#135 = FILL_AREA_STYLE_COLOUR ( '', #136 ) ;
#136 = COLOUR_RGB ( '',0.9568627450980391500, 0.9490196078431372100, 0.9607843137254902200 ) ;
#137 = DIRECTION ( 'NONE',  ( -0.0000000000000000000, -0.0000000000000000000, 1.000000000000000000 ) ) ;
#138 =( GEOMETRIC_REPRESENTATION_CONTEXT ( 3 ) GLOBAL_UNCERTAINTY_ASSIGNED_CONTEXT ( ( #87 ) ) GLOBAL_UNIT_ASSIGNED_CONTEXT ( ( #85, #67, #92 ) ) REPRESENTATION_CONTEXT ( 'NONE', 'WORKASPACE' ) );
#139 = PRESENTATION_LAYER_ASSIGNMENT (  '', '', ( #140 ) ) ;
#140 = STYLED_ITEM ( 'NONE', ( #141 ), #255 ) ;
#141 = PRESENTATION_STYLE_ASSIGNMENT (( #142 ) ) ;
#142 = SURFACE_STYLE_USAGE ( .BOTH. , #143 ) ;
#143 = SURFACE_SIDE_STYLE ('',( #133 ) ) ;
#144 = UNCERTAINTY_MEASURE_WITH_UNIT (LENGTH_MEASURE( 1.000000000000000100E-005 ), #104, 'distance_accuracy_value', 'NONE');
#145 =( NAMED_UNIT ( * ) SI_UNIT ( $, .STERADIAN. ) SOLID_ANGLE_UNIT ( ) );
#146 = UNCERTAINTY_MEASURE_WITH_UNIT (LENGTH_MEASURE( 1.000000000000000100E-005 ), #227, 'distance_accuracy_value', 'NONE');
#147 = ADVANCED_BREP_SHAPE_REPRESENTATION ( '3452-E0W', ( #301, #159 ), #148 ) ;
#148 =( GEOMETRIC_REPRESENTATION_CONTEXT ( 3 ) GLOBAL_UNCERTAINTY_ASSIGNED_CONTEXT ( ( #146 ) ) GLOBAL_UNIT_ASSIGNED_CONTEXT ( ( #227, #226, #225 ) ) REPRESENTATION_CONTEXT ( 'NONE', 'WORKASPACE' ) );
#149 = COLOUR_RGB ( '',0.7960784313725489700, 0.8235294117647058400, 0.9372549019607843100 ) ;
#150 = SURFACE_STYLE_FILL_AREA ( #151 ) ;
#151 = FILL_AREA_STYLE ('',( #152 ) ) ;
#152 = FILL_AREA_STYLE_COLOUR ( '', #149 ) ;
#153 = STYLED_ITEM ( 'NONE', ( #154 ), #147 ) ;
#154 = PRESENTATION_STYLE_ASSIGNMENT (( #155 ) ) ;
#155 = SURFACE_STYLE_USAGE ( .BOTH. , #156 ) ;
#156 = SURFACE_SIDE_STYLE ('',( #150 ) ) ;
#157 = SHAPE_DEFINITION_REPRESENTATION ( #160, #147 ) ;
#158 =( GEOMETRIC_REPRESENTATION_CONTEXT ( 3 ) GLOBAL_UNCERTAINTY_ASSIGNED_CONTEXT ( ( #166 ) ) GLOBAL_UNIT_ASSIGNED_CONTEXT ( ( #162, #161, #169 ) ) REPRESENTATION_CONTEXT ( 'NONE', 'WORKASPACE' ) );
#159 = AXIS2_PLACEMENT_3D ( 'NONE', #165, #164, #163 ) ;
#160 = PRODUCT_DEFINITION_SHAPE ( 'NONE', 'NONE',  #175 ) ;
#161 =( NAMED_UNIT ( * ) PLANE_ANGLE_UNIT ( ) SI_UNIT ( $, .RADIAN. ) );
#162 =( LENGTH_UNIT ( ) NAMED_UNIT ( * ) SI_UNIT ( .MILLI., .METRE. ) );
#163 = DIRECTION ( 'NONE',  ( 1.000000000000000000, 0.0000000000000000000, 0.0000000000000000000 ) ) ;
#164 = DIRECTION ( 'NONE',  ( 0.0000000000000000000, 0.0000000000000000000, 1.000000000000000000 ) ) ;
#165 = CARTESIAN_POINT ( 'NONE',  ( 0.0000000000000000000, 0.0000000000000000000, 0.0000000000000000000 ) ) ;
#166 = UNCERTAINTY_MEASURE_WITH_UNIT (LENGTH_MEASURE( 1.000000000000000100E-005 ), #162, 'distance_accuracy_value', 'NONE');
#167 = MECHANICAL_DESIGN_GEOMETRIC_PRESENTATION_REPRESENTATION (  '', ( #153 ), #158 ) ;
#168 = PRESENTATION_LAYER_ASSIGNMENT (  '', '', ( #153 ) ) ;
#169 =( NAMED_UNIT ( * ) SI_UNIT ( $, .STERADIAN. ) SOLID_ANGLE_UNIT ( ) );
#170 = PRODUCT ( '3452-E0W', '3452-E0W', '', ( #171 ) ) ;
#171 = PRODUCT_CONTEXT ( 'NONE', #179, 'mechanical' ) ;
#172 = APPLICATION_PROTOCOL_DEFINITION ( 'draft international standard', 'automotive_design', 1998, #179 ) ;
#173 = PRODUCT_RELATED_PRODUCT_CATEGORY ( 'part', '', ( #170 ) ) ;
#174 = PRODUCT_DEFINITION_FORMATION_WITH_SPECIFIED_SOURCE ( 'ANY', '', #170, .NOT_KNOWN. ) ;
#175 = PRODUCT_DEFINITION ( 'UNKNOWN', '', #174, #176 ) ;
#176 = PRODUCT_DEFINITION_CONTEXT ( 'detailed design', #178, 'design' ) ;
#177 = APPLICATION_PROTOCOL_DEFINITION ( 'draft international standard', 'automotive_design', 1998, #178 ) ;
#178 = APPLICATION_CONTEXT ( 'automotive_design' ) ;
#179 = APPLICATION_CONTEXT ( 'automotive_design' ) ;
#180 = PRESENTATION_STYLE_ASSIGNMENT (( #181 ) ) ;
#181 = SURFACE_STYLE_USAGE ( .BOTH. , #182 ) ;
#182 = SURFACE_SIDE_STYLE ('',( #183 ) ) ;
#183 = SURFACE_STYLE_FILL_AREA ( #184 ) ;
#184 = FILL_AREA_STYLE ('',( #185 ) ) ;
#185 = FILL_AREA_STYLE_COLOUR ( '', #186 ) ;
#186 = COLOUR_RGB ( '',0.9568627450980391500, 0.9490196078431372100, 0.9607843137254902200 ) ;
#187 =( NAMED_UNIT ( * ) SI_UNIT ( $, .STERADIAN. ) SOLID_ANGLE_UNIT ( ) );
#188 =( NAMED_UNIT ( * ) PLANE_ANGLE_UNIT ( ) SI_UNIT ( $, .RADIAN. ) );
#189 = PRESENTATION_LAYER_ASSIGNMENT (  '', '', ( #190 ) ) ;
#190 = STYLED_ITEM ( 'NONE', ( #212 ), #301 ) ;
#191 =( NAMED_UNIT ( * ) PLANE_ANGLE_UNIT ( ) SI_UNIT ( $, .RADIAN. ) );
#192 =( LENGTH_UNIT ( ) NAMED_UNIT ( * ) SI_UNIT ( .MILLI., .METRE. ) );
#193 = MECHANICAL_DESIGN_GEOMETRIC_PRESENTATION_REPRESENTATION (  '', ( #190 ), #224 ) ;
#194 = SURFACE_SIDE_STYLE ('',( #195 ) ) ;
#195 = SURFACE_STYLE_FILL_AREA ( #196 ) ;
#196 = FILL_AREA_STYLE ('',( #197 ) ) ;
#197 = FILL_AREA_STYLE_COLOUR ( '', #219 ) ;
#198 =( LENGTH_UNIT ( ) NAMED_UNIT ( * ) SI_UNIT ( .MILLI., .METRE. ) );
#199 = MECHANICAL_DESIGN_GEOMETRIC_PRESENTATION_REPRESENTATION (  '', ( #201 ), #210 ) ;
#200 = PRESENTATION_LAYER_ASSIGNMENT (  '', '', ( #201 ) ) ;
#201 = STYLED_ITEM ( 'NONE', ( #180 ), #302 ) ;
#202 =( GEOMETRIC_REPRESENTATION_CONTEXT ( 3 ) GLOBAL_UNCERTAINTY_ASSIGNED_CONTEXT ( ( #59 ) ) GLOBAL_UNIT_ASSIGNED_CONTEXT ( ( #26, #61, #60 ) ) REPRESENTATION_CONTEXT ( 'NONE', 'WORKASPACE' ) );
#203 = AXIS2_PLACEMENT_3D ( 'NONE', #205, #218, #221 ) ;
#204 = CARTESIAN_POINT ( 'NONE',  ( 0.0000000000000000000, 0.0000000000000000000, -2.008538742559577100 ) ) ;
#205 = CARTESIAN_POINT ( 'NONE',  ( 0.0000000000000000000, 0.0000000000000000000, 9.283642497400633100 ) ) ;
#206 = CYLINDRICAL_SURFACE ( 'NONE', #203, 12.70000000000000100 ) ;
#207 = CARTESIAN_POINT ( 'NONE',  ( 0.0000000000000000000, 0.0000000000000000000, -108.1514612574404300 ) ) ;
#208 = AXIS2_PLACEMENT_3D ( 'NONE', #207, #234, #233 ) ;
#209 = SPHERICAL_SURFACE ( 'NONE', #208, 106.9000000000000100 ) ;
#210 =( GEOMETRIC_REPRESENTATION_CONTEXT ( 3 ) GLOBAL_UNCERTAINTY_ASSIGNED_CONTEXT ( ( #211 ) ) GLOBAL_UNIT_ASSIGNED_CONTEXT ( ( #198, #188, #187 ) ) REPRESENTATION_CONTEXT ( 'NONE', 'WORKASPACE' ) );
#211 = UNCERTAINTY_MEASURE_WITH_UNIT (LENGTH_MEASURE( 1.000000000000000100E-005 ), #198, 'distance_accuracy_value', 'NONE');
#212 = PRESENTATION_STYLE_ASSIGNMENT (( #213 ) ) ;
#213 = SURFACE_STYLE_USAGE ( .BOTH. , #194 ) ;
#214 = UNCERTAINTY_MEASURE_WITH_UNIT (LENGTH_MEASURE( 1.000000000000000100E-005 ), #192, 'distance_accuracy_value', 'NONE');
#215 =( NAMED_UNIT ( * ) SI_UNIT ( $, .STERADIAN. ) SOLID_ANGLE_UNIT ( ) );
#216 = DIRECTION ( 'NONE',  ( 1.000000000000000000, 0.0000000000000000000, 0.0000000000000000000 ) ) ;
#217 = CIRCLE ( 'NONE', #220, 12.70000000000000100 ) ;
#218 = DIRECTION ( 'NONE',  ( -0.0000000000000000000, -0.0000000000000000000, 1.000000000000000000 ) ) ;
#219 = COLOUR_RGB ( '',0.7960784313725489700, 0.8235294117647058400, 0.9372549019607843100 ) ;
#220 = AXIS2_PLACEMENT_3D ( 'NONE', #204, #222, #216 ) ;
#221 = DIRECTION ( 'NONE',  ( 1.000000000000000000, 0.0000000000000000000, 0.0000000000000000000 ) ) ;
#222 = DIRECTION ( 'NONE',  ( -0.0000000000000000000, -0.0000000000000000000, 1.000000000000000000 ) ) ;
#223 = FACE_OUTER_BOUND ( 'NONE', #291, .T. ) ;
#224 =( GEOMETRIC_REPRESENTATION_CONTEXT ( 3 ) GLOBAL_UNCERTAINTY_ASSIGNED_CONTEXT ( ( #214 ) ) GLOBAL_UNIT_ASSIGNED_CONTEXT ( ( #192, #191, #215 ) ) REPRESENTATION_CONTEXT ( 'NONE', 'WORKASPACE' ) );
#225 =( NAMED_UNIT ( * ) SI_UNIT ( $, .STERADIAN. ) SOLID_ANGLE_UNIT ( ) );
#226 =( NAMED_UNIT ( * ) PLANE_ANGLE_UNIT ( ) SI_UNIT ( $, .RADIAN. ) );
#227 =( LENGTH_UNIT ( ) NAMED_UNIT ( * ) SI_UNIT ( .MILLI., .METRE. ) );
#228 = CARTESIAN_POINT ( 'NONE',  ( -12.70000000000000100, 1.555250069354419300E-015, -0.02891466103421315400 ) ) ;
#229 = DIRECTION ( 'NONE',  ( -0.0000000000000000000, -0.0000000000000000000, 1.000000000000000000 ) ) ;
#230 = VECTOR ( 'NONE', #229, 1000.000000000000000 ) ;
#231 = CARTESIAN_POINT ( 'NONE',  ( -12.70000000000000100, 1.555250069354419300E-015, 9.283642497400633100 ) ) ;
#232 = LINE ( 'NONE', #231, #230 ) ;
#233 = DIRECTION ( 'NONE',  ( 0.0000000000000000000, 1.000000000000000000, 0.0000000000000000000 ) ) ;
#234 = DIRECTION ( 'NONE',  ( -1.000000000000000000, 0.0000000000000000000, 0.0000000000000000000 ) ) ;
#235 = VERTEX_POINT ( 'NONE', #308 ) ;
#236 = ORIENTED_EDGE ( 'NONE', *, *, #298, .T. ) ;
#237 = ORIENTED_EDGE ( 'NONE', *, *, #266, .T. ) ;
#238 = EDGE_CURVE ( 'NONE', #295, #262, #306, .T. ) ;
#239 = ADVANCED_FACE ( 'NONE', ( #307 ), #62, .T. ) ;
#240 = EDGE_LOOP ( 'NONE', ( #252, #258, #246, #249 ) ) ;
#241 = ADVANCED_FACE ( 'NONE', ( #86 ), #68, .T. ) ;
#242 = ORIENTED_EDGE ( 'NONE', *, *, #303, .F. ) ;
#243 = VERTEX_POINT ( 'NONE', #97 ) ;
#244 = EDGE_CURVE ( 'NONE', #263, #243, #66, .T. ) ;
#245 = ORIENTED_EDGE ( 'NONE', *, *, #270, .F. ) ;
#246 = ORIENTED_EDGE ( 'NONE', *, *, #244, .T. ) ;
#247 = EDGE_LOOP ( 'NONE', ( #257, #293, #292, #281 ) ) ;
#248 = EDGE_CURVE ( 'NONE', #264, #263, #116, .T. ) ;
#249 = ORIENTED_EDGE ( 'NONE', *, *, #267, .T. ) ;
#250 = ORIENTED_EDGE ( 'NONE', *, *, #275, .T. ) ;
#251 = ORIENTED_EDGE ( 'NONE', *, *, #272, .T. ) ;
#252 = ORIENTED_EDGE ( 'NONE', *, *, #254, .F. ) ;
#253 = ORIENTED_EDGE ( 'NONE', *, *, #254, .T. ) ;
#254 = EDGE_CURVE ( 'NONE', #273, #278, #131, .T. ) ;
#255 = ADVANCED_FACE ( 'NONE', ( #132 ), #109, .T. ) ;
#256 = ORIENTED_EDGE ( 'NONE', *, *, #248, .T. ) ;
#257 = ORIENTED_EDGE ( 'NONE', *, *, #238, .F. ) ;
#258 = ORIENTED_EDGE ( 'NONE', *, *, #270, .T. ) ;
#259 = ORIENTED_EDGE ( 'NONE', *, *, #244, .F. ) ;
#260 = ORIENTED_EDGE ( 'NONE', *, *, #288, .T. ) ;
#261 = ORIENTED_EDGE ( 'NONE', *, *, #267, .F. ) ;
#262 = VERTEX_POINT ( 'NONE', #108 ) ;
#263 = VERTEX_POINT ( 'NONE', #100 ) ;
#264 = VERTEX_POINT ( 'NONE', #99 ) ;
#265 = ORIENTED_EDGE ( 'NONE', *, *, #266, .F. ) ;
#266 = EDGE_CURVE ( 'NONE', #264, #235, #95, .T. ) ;
#267 = EDGE_CURVE ( 'NONE', #243, #278, #64, .T. ) ;
#268 = EDGE_LOOP ( 'NONE', ( #242, #251, #250, #256, #245, #274 ) ) ;
#269 = ORIENTED_EDGE ( 'NONE', *, *, #296, .F. ) ;
#270 = EDGE_CURVE ( 'NONE', #273, #263, #71, .T. ) ;
#271 = ORIENTED_EDGE ( 'NONE', *, *, #238, .T. ) ;
#272 = EDGE_CURVE ( 'NONE', #289, #295, #120, .T. ) ;
#273 = VERTEX_POINT ( 'NONE', #3 ) ;
#274 = ORIENTED_EDGE ( 'NONE', *, *, #286, .F. ) ;
#275 = EDGE_CURVE ( 'NONE', #295, #264, #6, .T. ) ;
#276 = ADVANCED_FACE ( 'NONE', ( #22 ), #24, .F. ) ;
#277 = EDGE_LOOP ( 'NONE', ( #260, #279, #253, #261 ) ) ;
#278 = VERTEX_POINT ( 'NONE', #32 ) ;
#279 = ORIENTED_EDGE ( 'NONE', *, *, #286, .T. ) ;
#280 = UNCERTAINTY_MEASURE_WITH_UNIT (LENGTH_MEASURE( 1.000000000000000100E-005 ), #309, 'distance_accuracy_value', 'NONE');
#281 = ORIENTED_EDGE ( 'NONE', *, *, #296, .T. ) ;
#282 =( GEOMETRIC_REPRESENTATION_CONTEXT ( 3 ) GLOBAL_UNCERTAINTY_ASSIGNED_CONTEXT ( ( #280 ) ) GLOBAL_UNIT_ASSIGNED_CONTEXT ( ( #309, #287, #284 ) ) REPRESENTATION_CONTEXT ( 'NONE', 'WORKASPACE' ) );
#283 = CLOSED_SHELL ( 'NONE', ( #302, #297, #239, #255, #241, #276 ) ) ;
#284 =( NAMED_UNIT ( * ) SI_UNIT ( $, .STERADIAN. ) SOLID_ANGLE_UNIT ( ) );
#285 = ORIENTED_EDGE ( 'NONE', *, *, #248, .F. ) ;
#286 = EDGE_CURVE ( 'NONE', #304, #273, #33, .T. ) ;
#287 =( NAMED_UNIT ( * ) PLANE_ANGLE_UNIT ( ) SI_UNIT ( $, .RADIAN. ) );
#288 = EDGE_CURVE ( 'NONE', #243, #304, #39, .T. ) ;
#289 = VERTEX_POINT ( 'NONE', #43 ) ;
#290 = ORIENTED_EDGE ( 'NONE', *, *, #303, .T. ) ;
#291 = EDGE_LOOP ( 'NONE', ( #300, #271, #269, #265 ) ) ;
#292 = ORIENTED_EDGE ( 'NONE', *, *, #298, .F. ) ;
#293 = ORIENTED_EDGE ( 'NONE', *, *, #272, .F. ) ;
#294 = EDGE_LOOP ( 'NONE', ( #237, #236, #290, #299, #259, #285 ) ) ;
#295 = VERTEX_POINT ( 'NONE', #42 ) ;
#296 = EDGE_CURVE ( 'NONE', #235, #262, #41, .T. ) ;
#297 = ADVANCED_FACE ( 'NONE', ( #58 ), #206, .T. ) ;
#298 = EDGE_CURVE ( 'NONE', #235, #289, #217, .T. ) ;
#299 = ORIENTED_EDGE ( 'NONE', *, *, #288, .F. ) ;
#300 = ORIENTED_EDGE ( 'NONE', *, *, #275, .F. ) ;
#301 = MANIFOLD_SOLID_BREP ( 'NONE', #283 ) ;
#302 = ADVANCED_FACE ( 'NONE', ( #223 ), #209, .F. ) ;
#303 = EDGE_CURVE ( 'NONE', #289, #304, #232, .T. ) ;
#304 = VERTEX_POINT ( 'NONE', #228 ) ;
#305 = AXIS2_PLACEMENT_3D ( 'NONE', #322, #321, #320 ) ;
#306 = CIRCLE ( 'NONE', #305, 106.9000000000000100 ) ;
#307 = FACE_OUTER_BOUND ( 'NONE', #277, .T. ) ;
#308 = CARTESIAN_POINT ( 'NONE',  ( 0.0000000000000000000, 12.69999999999999200, -2.008538742559568200 ) ) ;
#309 =( LENGTH_UNIT ( ) NAMED_UNIT ( * ) SI_UNIT ( .MILLI., .METRE. ) );
#310 = MECHANICAL_DESIGN_GEOMETRIC_PRESENTATION_REPRESENTATION (  '', ( #312 ), #282 ) ;
#311 = PRESENTATION_LAYER_ASSIGNMENT (  '', '', ( #312 ) ) ;
#312 = STYLED_ITEM ( 'NONE', ( #313 ), #239 ) ;
#313 = PRESENTATION_STYLE_ASSIGNMENT (( #314 ) ) ;
#314 = SURFACE_STYLE_USAGE ( .BOTH. , #315 ) ;
#315 = SURFACE_SIDE_STYLE ('',( #316 ) ) ;
#316 = SURFACE_STYLE_FILL_AREA ( #317 ) ;
#317 = FILL_AREA_STYLE ('',( #318 ) ) ;
#318 = FILL_AREA_STYLE_COLOUR ( '', #319 ) ;
#319 = COLOUR_RGB ( '',0.9568627450980391500, 0.9490196078431372100, 0.9607843137254902200 ) ;
#320 = DIRECTION ( 'NONE',  ( -1.224606353822377300E-016, -1.000000000000000000, 0.0000000000000000000 ) ) ;
#321 = DIRECTION ( 'NONE',  ( -1.000000000000000000, 1.224606353822377300E-016, 0.0000000000000000000 ) ) ;
#322 = CARTESIAN_POINT ( 'NONE',  ( 0.0000000000000000000, 0.0000000000000000000, -108.1514612574404300 ) ) ;
ENDSEC;
END-ISO-10303-21;
