ISO-10303-21;
HEADER;
FILE_DESCRIPTION (( 'STEP AP203' ),
    '1' );
FILE_NAME ('Web Model 36992_13295.step',
    '2020-11-03T22:13:53',
    ( '' ),
    ( '' ),
    'SwSTEP 2.0',
    'SolidWorks 2018',
    '' );
FILE_SCHEMA (( 'CONFIG_CONTROL_DESIGN' ));
ENDSEC;

DATA;
#1 = PRODUCT ( 'Web Model 36992_13295', 'Web Model 36992_13295', '', ( #57 ) ) ;
#2 = EDGE_LOOP ( 'NONE', ( #17, #8 ) ) ;
#3 = DIRECTION ( 'NONE',  ( 0.0000000000000000000, 0.0000000000000000000, 1.000000000000000000 ) ) ;
#4 = APPROVAL_PERSON_ORGANIZATION ( #38, #19, #91 ) ;
#5 = DATE_AND_TIME ( #25, #65 ) ;
#6 = ORIENTED_EDGE ( 'NONE', *, *, #136, .F. ) ;
#7 = SECURITY_CLASSIFICATION ( '', '', #111 ) ;
#8 = ORIENTED_EDGE ( 'NONE', *, *, #147, .F. ) ;
#9 = ORIENTED_EDGE ( 'NONE', *, *, #130, .T. ) ;
#10 = EDGE_CURVE ( 'NONE', #144, #40, #36, .T. ) ;
#11 = DIRECTION ( 'NONE',  ( 0.0000000000000000000, 0.0000000000000000000, 1.000000000000000000 ) ) ;
#12 = LOCAL_TIME ( 17, 13, 53.00000000000000000, #90 ) ;
#13 = PRODUCT_DEFINITION ( 'UNKNOWN', '', #102, #109 ) ;
#14 = APPROVAL_ROLE ( '' ) ;
#15 =( NAMED_UNIT ( * ) PLANE_ANGLE_UNIT ( ) SI_UNIT ( $, .RADIAN. ) );
#16 = APPROVAL_PERSON_ORGANIZATION ( #128, #41, #14 ) ;
#17 = ORIENTED_EDGE ( 'NONE', *, *, #130, .F. ) ;
#18 = PERSON_AND_ORGANIZATION ( #162, #103 ) ;
#19 = APPROVAL ( #76, 'UNSPECIFIED' ) ;
#20 = ADVANCED_FACE ( 'NONE', ( #138 ), #101, .T. ) ;
#21 = LINE ( 'NONE', #26, #61 ) ;
#22 = CC_DESIGN_PERSON_AND_ORGANIZATION_ASSIGNMENT ( #82, #170, ( #13 ) ) ;
#23 = ADVANCED_BREP_SHAPE_REPRESENTATION ( 'Web Model 36992_13295', ( #88, #164 ), #29 ) ;
#24 = CARTESIAN_POINT ( 'NONE',  ( 0.0000000000000000000, 0.0000000000000000000, 1.000000000000000000 ) ) ;
#25 = CALENDAR_DATE ( 2020, 3, 11 ) ;
#26 = CARTESIAN_POINT ( 'NONE',  ( 12.50000000000000000, 1.530808498934191521E-15, 1.000000000000000000 ) ) ;
#27 = CC_DESIGN_PERSON_AND_ORGANIZATION_ASSIGNMENT ( #18, #85, ( #7 ) ) ;
#28 = CIRCLE ( 'NONE', #141, 12.50000000000000000 ) ;
#29 =( GEOMETRIC_REPRESENTATION_CONTEXT ( 3 ) GLOBAL_UNCERTAINTY_ASSIGNED_CONTEXT ( ( #95 ) ) GLOBAL_UNIT_ASSIGNED_CONTEXT ( ( #50, #15, #139 ) ) REPRESENTATION_CONTEXT ( 'NONE', 'WORKASPACE' ) );
#30 = CALENDAR_DATE ( 2020, 3, 11 ) ;
#31 = AXIS2_PLACEMENT_3D ( 'NONE', #123, #11, #152 ) ;
#32 = CC_DESIGN_DATE_AND_TIME_ASSIGNMENT ( #124, #69, ( #7 ) ) ;
#33 = ORIENTED_EDGE ( 'NONE', *, *, #89, .F. ) ;
#34 = DIRECTION ( 'NONE',  ( 1.000000000000000000, 0.0000000000000000000, 0.0000000000000000000 ) ) ;
#35 = CC_DESIGN_APPROVAL ( #19, ( #102 ) ) ;
#36 = CIRCLE ( 'NONE', #78, 12.50000000000000000 ) ;
#37 = CC_DESIGN_PERSON_AND_ORGANIZATION_ASSIGNMENT ( #93, #96, ( #102 ) ) ;
#38 = PERSON_AND_ORGANIZATION ( #162, #103 ) ;
#39 = CARTESIAN_POINT ( 'NONE',  ( 0.0000000000000000000, 0.0000000000000000000, -1.000000000000000000 ) ) ;
#40 = VERTEX_POINT ( 'NONE', #172 ) ;
#41 = APPROVAL ( #55, 'UNSPECIFIED' ) ;
#42 = APPLICATION_PROTOCOL_DEFINITION ( 'international standard', 'config_control_design', 1994, #73 ) ;
#43 = ORIENTED_EDGE ( 'NONE', *, *, #10, .T. ) ;
#44 = CARTESIAN_POINT ( 'NONE',  ( 0.0000000000000000000, 0.0000000000000000000, 1.000000000000000000 ) ) ;
#45 = ORIENTED_EDGE ( 'NONE', *, *, #10, .F. ) ;
#46 = DIRECTION ( 'NONE',  ( -0.0000000000000000000, -0.0000000000000000000, -1.000000000000000000 ) ) ;
#47 = LOCAL_TIME ( 17, 13, 53.00000000000000000, #166 ) ;
#48 = DIRECTION ( 'NONE',  ( -1.000000000000000000, 0.0000000000000000000, 0.0000000000000000000 ) ) ;
#49 = CC_DESIGN_APPROVAL ( #41, ( #7 ) ) ;
#50 =( LENGTH_UNIT ( ) NAMED_UNIT ( * ) SI_UNIT ( .MILLI., .METRE. ) );
#51 = APPROVAL_PERSON_ORGANIZATION ( #113, #133, #62 ) ;
#52 = PERSON_AND_ORGANIZATION ( #162, #103 ) ;
#53 = PLANE ( 'NONE',  #160 ) ;
#54 = CARTESIAN_POINT ( 'NONE',  ( 12.50000000000000000, 1.530808498934191521E-15, 1.000000000000000000 ) ) ;
#55 = APPROVAL_STATUS ( 'not_yet_approved' ) ;
#56 = LOCAL_TIME ( 17, 13, 53.00000000000000000, #117 ) ;
#57 = MECHANICAL_CONTEXT ( 'NONE', #73, 'mechanical' ) ;
#58 = ADVANCED_FACE ( 'NONE', ( #67 ), #135, .T. ) ;
#59 = AXIS2_PLACEMENT_3D ( 'NONE', #175, #46, #48 ) ;
#60 = DATE_AND_TIME ( #83, #47 ) ;
#61 = VECTOR ( 'NONE', #79, 1000.000000000000000 ) ;
#62 = APPROVAL_ROLE ( '' ) ;
#63 = DIRECTION ( 'NONE',  ( 0.0000000000000000000, 0.0000000000000000000, 1.000000000000000000 ) ) ;
#64 = DIRECTION ( 'NONE',  ( -1.000000000000000000, 0.0000000000000000000, 0.0000000000000000000 ) ) ;
#65 = LOCAL_TIME ( 17, 13, 53.00000000000000000, #143 ) ;
#66 = DIRECTION ( 'NONE',  ( -0.0000000000000000000, -0.0000000000000000000, -1.000000000000000000 ) ) ;
#67 = FACE_OUTER_BOUND ( 'NONE', #87, .T. ) ;
#68 = ORIENTED_EDGE ( 'NONE', *, *, #116, .T. ) ;
#69 = DATE_TIME_ROLE ( 'classification_date' ) ;
#70 = CARTESIAN_POINT ( 'NONE',  ( 0.0000000000000000000, 0.0000000000000000000, 0.0000000000000000000 ) ) ;
#71 = CARTESIAN_POINT ( 'NONE',  ( -12.50000000000000000, 0.0000000000000000000, 1.000000000000000000 ) ) ;
#72 = CC_DESIGN_SECURITY_CLASSIFICATION ( #7, ( #102 ) ) ;
#73 = APPLICATION_CONTEXT ( 'configuration controlled 3d designs of mechanical parts and assemblies' ) ;
#74 = CC_DESIGN_DATE_AND_TIME_ASSIGNMENT ( #77, #157, ( #13 ) ) ;
#75 = ORIENTED_EDGE ( 'NONE', *, *, #116, .F. ) ;
#76 = APPROVAL_STATUS ( 'not_yet_approved' ) ;
#77 = DATE_AND_TIME ( #155, #12 ) ;
#78 = AXIS2_PLACEMENT_3D ( 'NONE', #44, #63, #34 ) ;
#79 = DIRECTION ( 'NONE',  ( -0.0000000000000000000, -0.0000000000000000000, -1.000000000000000000 ) ) ;
#80 = CYLINDRICAL_SURFACE ( 'NONE', #115, 12.50000000000000000 ) ;
#81 = DIRECTION ( 'NONE',  ( 1.000000000000000000, 0.0000000000000000000, 0.0000000000000000000 ) ) ;
#82 = PERSON_AND_ORGANIZATION ( #162, #103 ) ;
#83 = CALENDAR_DATE ( 2020, 3, 11 ) ;
#84 = VERTEX_POINT ( 'NONE', #161 ) ;
#85 = PERSON_AND_ORGANIZATION_ROLE ( 'classification_officer' ) ;
#86 = CARTESIAN_POINT ( 'NONE',  ( 0.0000000000000000000, 0.0000000000000000000, -1.000000000000000000 ) ) ;
#87 = EDGE_LOOP ( 'NONE', ( #45, #169, #119, #6 ) ) ;
#88 = MANIFOLD_SOLID_BREP ( 'Boss-Extrude1', #158 ) ;
#89 = EDGE_CURVE ( 'NONE', #144, #84, #21, .T. ) ;
#90 = COORDINATED_UNIVERSAL_TIME_OFFSET ( 5, 0, .BEHIND. ) ;
#91 = APPROVAL_ROLE ( '' ) ;
#92 = DATE_AND_TIME ( #126, #56 ) ;
#93 = PERSON_AND_ORGANIZATION ( #162, #103 ) ;
#94 = EDGE_LOOP ( 'NONE', ( #33, #75, #163, #9 ) ) ;
#95 = UNCERTAINTY_MEASURE_WITH_UNIT (LENGTH_MEASURE( 1.000000000000000082E-05 ), #50, 'distance_accuracy_value', 'NONE');
#96 = PERSON_AND_ORGANIZATION_ROLE ( 'creator' ) ;
#97 = DIRECTION ( 'NONE',  ( 1.000000000000000000, 0.0000000000000000000, 0.0000000000000000000 ) ) ;
#98 = CIRCLE ( 'NONE', #31, 12.50000000000000000 ) ;
#99 = AXIS2_PLACEMENT_3D ( 'NONE', #129, #134, #145 ) ;
#100 = PERSON_AND_ORGANIZATION_ROLE ( 'design_owner' ) ;
#101 = PLANE ( 'NONE',  #99 ) ;
#102 = PRODUCT_DEFINITION_FORMATION_WITH_SPECIFIED_SOURCE ( 'ANY', '', #1, .NOT_KNOWN. ) ;
#103 = ORGANIZATION ( 'UNSPECIFIED', 'UNSPECIFIED', '' ) ;
#104 = APPROVAL_STATUS ( 'not_yet_approved' ) ;
#105 = VERTEX_POINT ( 'NONE', #171 ) ;
#106 = LOCAL_TIME ( 17, 13, 53.00000000000000000, #159 ) ;
#107 = DIRECTION ( 'NONE',  ( -0.0000000000000000000, -0.0000000000000000000, -1.000000000000000000 ) ) ;
#108 = FACE_OUTER_BOUND ( 'NONE', #94, .T. ) ;
#109 = DESIGN_CONTEXT ( 'detailed design', #114, 'design' ) ;
#110 = PERSON_AND_ORGANIZATION_ROLE ( 'design_supplier' ) ;
#111 = SECURITY_CLASSIFICATION_LEVEL ( 'unclassified' ) ;
#112 = FACE_OUTER_BOUND ( 'NONE', #2, .T. ) ;
#113 = PERSON_AND_ORGANIZATION ( #162, #103 ) ;
#114 = APPLICATION_CONTEXT ( 'configuration controlled 3d designs of mechanical parts and assemblies' ) ;
#115 = AXIS2_PLACEMENT_3D ( 'NONE', #120, #66, #64 ) ;
#116 = EDGE_CURVE ( 'NONE', #40, #144, #28, .T. ) ;
#117 = COORDINATED_UNIVERSAL_TIME_OFFSET ( 5, 0, .BEHIND. ) ;
#118 = DIRECTION ( 'NONE',  ( 0.0000000000000000000, 0.0000000000000000000, 1.000000000000000000 ) ) ;
#119 = ORIENTED_EDGE ( 'NONE', *, *, #147, .T. ) ;
#120 = CARTESIAN_POINT ( 'NONE',  ( 0.0000000000000000000, 0.0000000000000000000, 1.000000000000000000 ) ) ;
#121 = DIRECTION ( 'NONE',  ( 0.0000000000000000000, 0.0000000000000000000, 1.000000000000000000 ) ) ;
#122 = APPROVAL_DATE_TIME ( #92, #133 ) ;
#123 = CARTESIAN_POINT ( 'NONE',  ( 0.0000000000000000000, 0.0000000000000000000, -1.000000000000000000 ) ) ;
#124 = DATE_AND_TIME ( #30, #106 ) ;
#125 = PRODUCT_RELATED_PRODUCT_CATEGORY ( 'detail', '', ( #1 ) ) ;
#126 = CALENDAR_DATE ( 2020, 3, 11 ) ;
#127 = ADVANCED_FACE ( 'NONE', ( #108 ), #80, .T. ) ;
#128 = PERSON_AND_ORGANIZATION ( #162, #103 ) ;
#129 = CARTESIAN_POINT ( 'NONE',  ( 0.0000000000000000000, 0.0000000000000000000, 1.000000000000000000 ) ) ;
#130 = EDGE_CURVE ( 'NONE', #105, #84, #98, .T. ) ;
#131 = PERSON_AND_ORGANIZATION ( #162, #103 ) ;
#132 = EDGE_LOOP ( 'NONE', ( #68, #43 ) ) ;
#133 = APPROVAL ( #104, 'UNSPECIFIED' ) ;
#134 = DIRECTION ( 'NONE',  ( 0.0000000000000000000, 0.0000000000000000000, 1.000000000000000000 ) ) ;
#135 = CYLINDRICAL_SURFACE ( 'NONE', #59, 12.50000000000000000 ) ;
#136 = EDGE_CURVE ( 'NONE', #40, #105, #146, .T. ) ;
#137 = DIRECTION ( 'NONE',  ( 0.0000000000000000000, 0.0000000000000000000, 1.000000000000000000 ) ) ;
#138 = FACE_OUTER_BOUND ( 'NONE', #132, .T. ) ;
#139 =( NAMED_UNIT ( * ) SI_UNIT ( $, .STERADIAN. ) SOLID_ANGLE_UNIT ( ) );
#140 = DIRECTION ( 'NONE',  ( 1.000000000000000000, 0.0000000000000000000, 0.0000000000000000000 ) ) ;
#141 = AXIS2_PLACEMENT_3D ( 'NONE', #24, #118, #81 ) ;
#142 = APPLICATION_PROTOCOL_DEFINITION ( 'international standard', 'config_control_design', 1994, #114 ) ;
#143 = COORDINATED_UNIVERSAL_TIME_OFFSET ( 5, 0, .BEHIND. ) ;
#144 = VERTEX_POINT ( 'NONE', #54 ) ;
#145 = DIRECTION ( 'NONE',  ( 1.000000000000000000, 0.0000000000000000000, -0.0000000000000000000 ) ) ;
#146 = LINE ( 'NONE', #71, #150 ) ;
#147 = EDGE_CURVE ( 'NONE', #84, #105, #165, .T. ) ;
#148 = DIRECTION ( 'NONE',  ( 1.000000000000000000, 0.0000000000000000000, -0.0000000000000000000 ) ) ;
#149 = PRODUCT_DEFINITION_SHAPE ( 'NONE', 'NONE',  #13 ) ;
#150 = VECTOR ( 'NONE', #107, 1000.000000000000000 ) ;
#151 = APPROVAL_DATE_TIME ( #5, #19 ) ;
#152 = DIRECTION ( 'NONE',  ( 1.000000000000000000, 0.0000000000000000000, 0.0000000000000000000 ) ) ;
#153 = CC_DESIGN_APPROVAL ( #133, ( #13 ) ) ;
#154 = AXIS2_PLACEMENT_3D ( 'NONE', #86, #3, #97 ) ;
#155 = CALENDAR_DATE ( 2020, 3, 11 ) ;
#156 = APPROVAL_DATE_TIME ( #60, #41 ) ;
#157 = DATE_TIME_ROLE ( 'creation_date' ) ;
#158 = CLOSED_SHELL ( 'NONE', ( #58, #127, #20, #168 ) ) ;
#159 = COORDINATED_UNIVERSAL_TIME_OFFSET ( 5, 0, .BEHIND. ) ;
#160 = AXIS2_PLACEMENT_3D ( 'NONE', #39, #121, #148 ) ;
#161 = CARTESIAN_POINT ( 'NONE',  ( 12.50000000000000000, 1.530808498934191521E-15, -1.000000000000000000 ) ) ;
#162 = PERSON ( 'UNSPECIFIED', 'UNSPECIFIED', 'UNSPECIFIED', ('UNSPECIFIED'), ('UNSPECIFIED'), ('UNSPECIFIED') ) ;
#163 = ORIENTED_EDGE ( 'NONE', *, *, #136, .T. ) ;
#164 = AXIS2_PLACEMENT_3D ( 'NONE', #70, #137, #140 ) ;
#165 = CIRCLE ( 'NONE', #154, 12.50000000000000000 ) ;
#166 = COORDINATED_UNIVERSAL_TIME_OFFSET ( 5, 0, .BEHIND. ) ;
#167 = CC_DESIGN_PERSON_AND_ORGANIZATION_ASSIGNMENT ( #131, #100, ( #1 ) ) ;
#168 = ADVANCED_FACE ( 'NONE', ( #112 ), #53, .F. ) ;
#169 = ORIENTED_EDGE ( 'NONE', *, *, #89, .T. ) ;
#170 = PERSON_AND_ORGANIZATION_ROLE ( 'creator' ) ;
#171 = CARTESIAN_POINT ( 'NONE',  ( -12.50000000000000000, 0.0000000000000000000, -1.000000000000000000 ) ) ;
#172 = CARTESIAN_POINT ( 'NONE',  ( -12.50000000000000000, 0.0000000000000000000, 1.000000000000000000 ) ) ;
#173 = SHAPE_DEFINITION_REPRESENTATION ( #149, #23 ) ;
#174 = CC_DESIGN_PERSON_AND_ORGANIZATION_ASSIGNMENT ( #52, #110, ( #102 ) ) ;
#175 = CARTESIAN_POINT ( 'NONE',  ( 0.0000000000000000000, 0.0000000000000000000, 1.000000000000000000 ) ) ;
ENDSEC;
END-ISO-10303-21;
