ISO-10303-21;
HEADER;
FILE_DESCRIPTION (( 'STEP AP203' ),
    '1' );
FILE_NAME ('36936_36962.step',
    '2017-08-23T20:39:39',
    ( '' ),
    ( '' ),
    'SwSTEP 2.0',
    'SolidWorks 2016',
    '' );
FILE_SCHEMA (( 'CONFIG_CONTROL_DESIGN' ));
ENDSEC;

DATA;
#1 = CC_DESIGN_PERSON_AND_ORGANIZATION_ASSIGNMENT ( #155, #46, ( #158 ) ) ;
#2 = APPROVAL_STATUS ( 'not_yet_approved' ) ;
#3 = CIRCLE ( 'NONE', #21, 37.49999999999999300 ) ;
#4 = APPROVAL_ROLE ( '' ) ;
#5 = CARTESIAN_POINT ( 'NONE',  ( 0.0000000000000000000, 0.0000000000000000000, 0.0000000000000000000 ) ) ;
#6 = PERSON_AND_ORGANIZATION ( #36, #151 ) ;
#7 = CIRCLE ( 'NONE', #174, 37.49999999999999300 ) ;
#8 = EDGE_CURVE ( 'NONE', #10, #98, #7, .T. ) ;
#9 = DATE_AND_TIME ( #59, #121 ) ;
#10 = VERTEX_POINT ( 'NONE', #160 ) ;
#11 = CARTESIAN_POINT ( 'NONE',  ( 0.0000000000000000000, 0.0000000000000000000, 2.500000000000000000 ) ) ;
#12 = CC_DESIGN_APPROVAL ( #137, ( #93 ) ) ;
#13 = PRODUCT_DEFINITION_SHAPE ( 'NONE', 'NONE',  #158 ) ;
#14 = PLANE ( 'NONE',  #95 ) ;
#15 = VECTOR ( 'NONE', #69, 1000.000000000000000 ) ;
#16 = DIRECTION ( 'NONE',  ( 0.0000000000000000000, 0.0000000000000000000, 1.000000000000000000 ) ) ;
#17 = PERSON_AND_ORGANIZATION_ROLE ( 'design_owner' ) ;
#18 = APPROVAL_ROLE ( '' ) ;
#19 = MANIFOLD_SOLID_BREP ( 'Boss-Extrude1', #33 ) ;
#20 = LINE ( 'NONE', #54, #139 ) ;
#21 = AXIS2_PLACEMENT_3D ( 'NONE', #71, #131, #135 ) ;
#22 = APPROVAL_DATE_TIME ( #136, #31 ) ;
#23 = AXIS2_PLACEMENT_3D ( 'NONE', #125, #140, #86 ) ;
#24 = CARTESIAN_POINT ( 'NONE',  ( 0.0000000000000000000, 0.0000000000000000000, -2.500000000000000000 ) ) ;
#25 = DIRECTION ( 'NONE',  ( 0.0000000000000000000, 0.0000000000000000000, 1.000000000000000000 ) ) ;
#26 = COORDINATED_UNIVERSAL_TIME_OFFSET ( 5, 0, .BEHIND. ) ;
#27 = DIRECTION ( 'NONE',  ( -0.0000000000000000000, -0.0000000000000000000, -1.000000000000000000 ) ) ;
#28 = FACE_OUTER_BOUND ( 'NONE', #118, .T. ) ;
#29 = CC_DESIGN_DATE_AND_TIME_ASSIGNMENT ( #122, #138, ( #158 ) ) ;
#30 = VERTEX_POINT ( 'NONE', #40 ) ;
#31 = APPROVAL ( #2, 'UNSPECIFIED' ) ;
#32 = APPLICATION_CONTEXT ( 'configuration controlled 3d designs of mechanical parts and assemblies' ) ;
#33 = CLOSED_SHELL ( 'NONE', ( #120, #53, #168, #82 ) ) ;
#34 = SECURITY_CLASSIFICATION_LEVEL ( 'unclassified' ) ;
#35 = ORIENTED_EDGE ( 'NONE', *, *, #61, .T. ) ;
#36 = PERSON ( 'UNSPECIFIED', 'UNSPECIFIED', 'UNSPECIFIED', ('UNSPECIFIED'), ('UNSPECIFIED'), ('UNSPECIFIED') ) ;
#37 = CYLINDRICAL_SURFACE ( 'NONE', #147, 37.49999999999999300 ) ;
#38 = PRODUCT_DEFINITION_FORMATION_WITH_SPECIFIED_SOURCE ( 'ANY', '', #90, .NOT_KNOWN. ) ;
#39 = DIRECTION ( 'NONE',  ( 1.000000000000000000, 0.0000000000000000000, 0.0000000000000000000 ) ) ;
#40 = CARTESIAN_POINT ( 'NONE',  ( 37.49999999999999300, 4.592425496802573600E-015, 2.500000000000000000 ) ) ;
#41 = CARTESIAN_POINT ( 'NONE',  ( 0.0000000000000000000, 0.0000000000000000000, 2.500000000000000000 ) ) ;
#42 = CC_DESIGN_SECURITY_CLASSIFICATION ( #93, ( #38 ) ) ;
#43 = DIRECTION ( 'NONE',  ( -1.000000000000000000, 0.0000000000000000000, 0.0000000000000000000 ) ) ;
#44 = CIRCLE ( 'NONE', #129, 37.49999999999999300 ) ;
#45 = EDGE_LOOP ( 'NONE', ( #110, #162, #35, #134 ) ) ;
#46 = PERSON_AND_ORGANIZATION_ROLE ( 'creator' ) ;
#47 = ORIENTED_EDGE ( 'NONE', *, *, #61, .F. ) ;
#48 = PERSON_AND_ORGANIZATION_ROLE ( 'classification_officer' ) ;
#49 = CALENDAR_DATE ( 2017, 23, 8 ) ;
#50 = PRODUCT_RELATED_PRODUCT_CATEGORY ( 'detail', '', ( #90 ) ) ;
#51 = LINE ( 'NONE', #159, #15 ) ;
#52 = AXIS2_PLACEMENT_3D ( 'NONE', #5, #73, #150 ) ;
#53 = ADVANCED_FACE ( 'NONE', ( #144 ), #37, .T. ) ;
#54 = CARTESIAN_POINT ( 'NONE',  ( 37.49999999999999300, 4.592425496802573600E-015, 2.500000000000000000 ) ) ;
#55 = CARTESIAN_POINT ( 'NONE',  ( 0.0000000000000000000, 0.0000000000000000000, 2.500000000000000000 ) ) ;
#56 = LOCAL_TIME ( 16, 39, 39.00000000000000000, #130 ) ;
#57 = DIRECTION ( 'NONE',  ( 0.0000000000000000000, 0.0000000000000000000, 1.000000000000000000 ) ) ;
#58 = APPROVAL ( #62, 'UNSPECIFIED' ) ;
#59 = CALENDAR_DATE ( 2017, 23, 8 ) ;
#60 = ORIENTED_EDGE ( 'NONE', *, *, #91, .F. ) ;
#61 = EDGE_CURVE ( 'NONE', #98, #10, #3, .T. ) ;
#62 = APPROVAL_STATUS ( 'not_yet_approved' ) ;
#63 = DIRECTION ( 'NONE',  ( 1.000000000000000000, 0.0000000000000000000, -0.0000000000000000000 ) ) ;
#64 = CARTESIAN_POINT ( 'NONE',  ( 0.0000000000000000000, 0.0000000000000000000, 2.500000000000000000 ) ) ;
#65 = LOCAL_TIME ( 16, 39, 39.00000000000000000, #94 ) ;
#66 = FACE_OUTER_BOUND ( 'NONE', #45, .T. ) ;
#67 = CC_DESIGN_APPROVAL ( #58, ( #38 ) ) ;
#68 = DESIGN_CONTEXT ( 'detailed design', #152, 'design' ) ;
#69 = DIRECTION ( 'NONE',  ( -0.0000000000000000000, -0.0000000000000000000, -1.000000000000000000 ) ) ;
#70 = CARTESIAN_POINT ( 'NONE',  ( 0.0000000000000000000, 0.0000000000000000000, -2.500000000000000000 ) ) ;
#71 = CARTESIAN_POINT ( 'NONE',  ( 0.0000000000000000000, 0.0000000000000000000, -2.500000000000000000 ) ) ;
#72 = APPROVAL_STATUS ( 'not_yet_approved' ) ;
#73 = DIRECTION ( 'NONE',  ( 0.0000000000000000000, 0.0000000000000000000, 1.000000000000000000 ) ) ;
#74 = EDGE_CURVE ( 'NONE', #30, #166, #143, .T. ) ;
#75 = DATE_TIME_ROLE ( 'classification_date' ) ;
#76 = APPLICATION_PROTOCOL_DEFINITION ( 'international standard', 'config_control_design', 1994, #32 ) ;
#77 = COORDINATED_UNIVERSAL_TIME_OFFSET ( 5, 0, .BEHIND. ) ;
#78 = PERSON_AND_ORGANIZATION ( #36, #151 ) ;
#79 = EDGE_LOOP ( 'NONE', ( #102, #47 ) ) ;
#80 = ADVANCED_BREP_SHAPE_REPRESENTATION ( '36936_36962', ( #19, #52 ), #149 ) ;
#81 = DIRECTION ( 'NONE',  ( 1.000000000000000000, 0.0000000000000000000, 0.0000000000000000000 ) ) ;
#82 = ADVANCED_FACE ( 'NONE', ( #175 ), #145, .F. ) ;
#83 = DIRECTION ( 'NONE',  ( 1.000000000000000000, 0.0000000000000000000, -0.0000000000000000000 ) ) ;
#84 = APPROVAL_PERSON_ORGANIZATION ( #114, #31, #123 ) ;
#85 = CC_DESIGN_PERSON_AND_ORGANIZATION_ASSIGNMENT ( #6, #124, ( #38 ) ) ;
#86 = DIRECTION ( 'NONE',  ( -1.000000000000000000, 0.0000000000000000000, 0.0000000000000000000 ) ) ;
#87 = APPROVAL_DATE_TIME ( #9, #137 ) ;
#88 = SHAPE_DEFINITION_REPRESENTATION ( #13, #80 ) ;
#89 = MECHANICAL_CONTEXT ( 'NONE', #32, 'mechanical' ) ;
#90 = PRODUCT ( '36936_36962', '36936_36962', '', ( #89 ) ) ;
#91 = EDGE_CURVE ( 'NONE', #166, #30, #44, .T. ) ;
#92 = PERSON_AND_ORGANIZATION ( #36, #151 ) ;
#93 = SECURITY_CLASSIFICATION ( '', '', #34 ) ;
#94 = COORDINATED_UNIVERSAL_TIME_OFFSET ( 5, 0, .BEHIND. ) ;
#95 = AXIS2_PLACEMENT_3D ( 'NONE', #64, #16, #63 ) ;
#96 = CALENDAR_DATE ( 2017, 23, 8 ) ;
#97 = LOCAL_TIME ( 16, 39, 39.00000000000000000, #161 ) ;
#98 = VERTEX_POINT ( 'NONE', #119 ) ;
#99 =( NAMED_UNIT ( * ) SI_UNIT ( $, .STERADIAN. ) SOLID_ANGLE_UNIT ( ) );
#100 = CC_DESIGN_PERSON_AND_ORGANIZATION_ASSIGNMENT ( #142, #101, ( #38 ) ) ;
#101 = PERSON_AND_ORGANIZATION_ROLE ( 'creator' ) ;
#102 = ORIENTED_EDGE ( 'NONE', *, *, #8, .F. ) ;
#103 = EDGE_CURVE ( 'NONE', #166, #10, #51, .T. ) ;
#104 = ORIENTED_EDGE ( 'NONE', *, *, #74, .T. ) ;
#105 = CALENDAR_DATE ( 2017, 23, 8 ) ;
#106 = ORIENTED_EDGE ( 'NONE', *, *, #91, .T. ) ;
#107 = CC_DESIGN_PERSON_AND_ORGANIZATION_ASSIGNMENT ( #78, #17, ( #90 ) ) ;
#108 = CYLINDRICAL_SURFACE ( 'NONE', #23, 37.49999999999999300 ) ;
#109 = APPLICATION_PROTOCOL_DEFINITION ( 'international standard', 'config_control_design', 1994, #152 ) ;
#110 = ORIENTED_EDGE ( 'NONE', *, *, #74, .F. ) ;
#111 =( LENGTH_UNIT ( ) NAMED_UNIT ( * ) SI_UNIT ( .MILLI., .METRE. ) );
#112 = APPROVAL_PERSON_ORGANIZATION ( #92, #58, #4 ) ;
#113 = EDGE_CURVE ( 'NONE', #30, #98, #20, .T. ) ;
#114 = PERSON_AND_ORGANIZATION ( #36, #151 ) ;
#115 = UNCERTAINTY_MEASURE_WITH_UNIT (LENGTH_MEASURE( 1.000000000000000100E-005 ), #111, 'distance_accuracy_value', 'NONE');
#116 = CC_DESIGN_PERSON_AND_ORGANIZATION_ASSIGNMENT ( #117, #48, ( #93 ) ) ;
#117 = PERSON_AND_ORGANIZATION ( #36, #151 ) ;
#118 = EDGE_LOOP ( 'NONE', ( #106, #104 ) ) ;
#119 = CARTESIAN_POINT ( 'NONE',  ( 37.49999999999999300, 4.592425496802573600E-015, -2.500000000000000000 ) ) ;
#120 = ADVANCED_FACE ( 'NONE', ( #66 ), #108, .T. ) ;
#121 = LOCAL_TIME ( 16, 39, 39.00000000000000000, #26 ) ;
#122 = DATE_AND_TIME ( #96, #157 ) ;
#123 = APPROVAL_ROLE ( '' ) ;
#124 = PERSON_AND_ORGANIZATION_ROLE ( 'design_supplier' ) ;
#125 = CARTESIAN_POINT ( 'NONE',  ( 0.0000000000000000000, 0.0000000000000000000, 2.500000000000000000 ) ) ;
#126 = CC_DESIGN_DATE_AND_TIME_ASSIGNMENT ( #127, #75, ( #93 ) ) ;
#127 = DATE_AND_TIME ( #165, #97 ) ;
#128 = DATE_AND_TIME ( #49, #56 ) ;
#129 = AXIS2_PLACEMENT_3D ( 'NONE', #41, #173, #39 ) ;
#130 = COORDINATED_UNIVERSAL_TIME_OFFSET ( 5, 0, .BEHIND. ) ;
#131 = DIRECTION ( 'NONE',  ( 0.0000000000000000000, 0.0000000000000000000, 1.000000000000000000 ) ) ;
#132 = AXIS2_PLACEMENT_3D ( 'NONE', #70, #156, #83 ) ;
#133 = APPROVAL_PERSON_ORGANIZATION ( #154, #137, #18 ) ;
#134 = ORIENTED_EDGE ( 'NONE', *, *, #103, .F. ) ;
#135 = DIRECTION ( 'NONE',  ( 1.000000000000000000, 0.0000000000000000000, 0.0000000000000000000 ) ) ;
#136 = DATE_AND_TIME ( #105, #65 ) ;
#137 = APPROVAL ( #72, 'UNSPECIFIED' ) ;
#138 = DATE_TIME_ROLE ( 'creation_date' ) ;
#139 = VECTOR ( 'NONE', #170, 1000.000000000000000 ) ;
#140 = DIRECTION ( 'NONE',  ( -0.0000000000000000000, -0.0000000000000000000, -1.000000000000000000 ) ) ;
#141 = AXIS2_PLACEMENT_3D ( 'NONE', #11, #57, #146 ) ;
#142 = PERSON_AND_ORGANIZATION ( #36, #151 ) ;
#143 = CIRCLE ( 'NONE', #141, 37.49999999999999300 ) ;
#144 = FACE_OUTER_BOUND ( 'NONE', #169, .T. ) ;
#145 = PLANE ( 'NONE',  #132 ) ;
#146 = DIRECTION ( 'NONE',  ( 1.000000000000000000, 0.0000000000000000000, 0.0000000000000000000 ) ) ;
#147 = AXIS2_PLACEMENT_3D ( 'NONE', #55, #27, #43 ) ;
#148 = ORIENTED_EDGE ( 'NONE', *, *, #113, .F. ) ;
#149 =( GEOMETRIC_REPRESENTATION_CONTEXT ( 3 ) GLOBAL_UNCERTAINTY_ASSIGNED_CONTEXT ( ( #115 ) ) GLOBAL_UNIT_ASSIGNED_CONTEXT ( ( #111, #164, #99 ) ) REPRESENTATION_CONTEXT ( 'NONE', 'WORKASPACE' ) );
#150 = DIRECTION ( 'NONE',  ( 1.000000000000000000, 0.0000000000000000000, 0.0000000000000000000 ) ) ;
#151 = ORGANIZATION ( 'UNSPECIFIED', 'UNSPECIFIED', '' ) ;
#152 = APPLICATION_CONTEXT ( 'configuration controlled 3d designs of mechanical parts and assemblies' ) ;
#153 = ORIENTED_EDGE ( 'NONE', *, *, #103, .T. ) ;
#154 = PERSON_AND_ORGANIZATION ( #36, #151 ) ;
#155 = PERSON_AND_ORGANIZATION ( #36, #151 ) ;
#156 = DIRECTION ( 'NONE',  ( 0.0000000000000000000, 0.0000000000000000000, 1.000000000000000000 ) ) ;
#157 = LOCAL_TIME ( 16, 39, 39.00000000000000000, #77 ) ;
#158 = PRODUCT_DEFINITION ( 'UNKNOWN', '', #38, #68 ) ;
#159 = CARTESIAN_POINT ( 'NONE',  ( -37.49999999999999300, 0.0000000000000000000, 2.500000000000000000 ) ) ;
#160 = CARTESIAN_POINT ( 'NONE',  ( -37.49999999999999300, 0.0000000000000000000, -2.500000000000000000 ) ) ;
#161 = COORDINATED_UNIVERSAL_TIME_OFFSET ( 5, 0, .BEHIND. ) ;
#162 = ORIENTED_EDGE ( 'NONE', *, *, #113, .T. ) ;
#163 = CARTESIAN_POINT ( 'NONE',  ( -37.49999999999999300, 0.0000000000000000000, 2.500000000000000000 ) ) ;
#164 =( NAMED_UNIT ( * ) PLANE_ANGLE_UNIT ( ) SI_UNIT ( $, .RADIAN. ) );
#165 = CALENDAR_DATE ( 2017, 23, 8 ) ;
#166 = VERTEX_POINT ( 'NONE', #163 ) ;
#167 = CC_DESIGN_APPROVAL ( #31, ( #158 ) ) ;
#168 = ADVANCED_FACE ( 'NONE', ( #28 ), #14, .T. ) ;
#169 = EDGE_LOOP ( 'NONE', ( #148, #60, #153, #172 ) ) ;
#170 = DIRECTION ( 'NONE',  ( -0.0000000000000000000, -0.0000000000000000000, -1.000000000000000000 ) ) ;
#171 = APPROVAL_DATE_TIME ( #128, #58 ) ;
#172 = ORIENTED_EDGE ( 'NONE', *, *, #8, .T. ) ;
#173 = DIRECTION ( 'NONE',  ( 0.0000000000000000000, 0.0000000000000000000, 1.000000000000000000 ) ) ;
#174 = AXIS2_PLACEMENT_3D ( 'NONE', #24, #25, #81 ) ;
#175 = FACE_OUTER_BOUND ( 'NONE', #79, .T. ) ;
ENDSEC;
END-ISO-10303-21;
