ISO-10303-21;
HEADER;
FILE_DESCRIPTION (( 'STEP AP203' ),
    '1' );
FILE_NAME ('TTN162739-E0W.STEP',
    '2019-10-24T14:04:01',
    ( '' ),
    ( '' ),
    'SwSTEP 2.0',
    'SolidWorks 2018',
    '' );
FILE_SCHEMA (( 'CONFIG_CONTROL_DESIGN' ));
ENDSEC;

DATA;
#1 = VERTEX_POINT ( 'NONE', #72 ) ;
#2 = AXIS2_PLACEMENT_3D ( 'NONE', #4, #243, #129 ) ;
#3 = DIRECTION ( 'NONE',  ( 0.0000000000000000000, -0.7071067811865475727, 0.7071067811865474617 ) ) ;
#4 = CARTESIAN_POINT ( 'NONE',  ( 0.6326764090625425219, 0.9748996455158485119, -0.9969929125150098770 ) ) ;
#5 = COORDINATED_UNIVERSAL_TIME_OFFSET ( 5, 0, .BEHIND. ) ;
#6 = PRODUCT_DEFINITION_SHAPE ( 'NONE', 'NONE',  #155 ) ;
#7 = DIRECTION ( 'NONE',  ( 0.0000000000000000000, 1.000000000000000000, 1.381589260892646422E-16 ) ) ;
#8 = CC_DESIGN_PERSON_AND_ORGANIZATION_ASSIGNMENT ( #132, #9, ( #91 ) ) ;
#9 = PERSON_AND_ORGANIZATION_ROLE ( 'design_supplier' ) ;
#10 = AXIS2_PLACEMENT_3D ( 'NONE', #84, #114, #111 ) ;
#11 = LINE ( 'NONE', #107, #63 ) ;
#12 =( GEOMETRIC_REPRESENTATION_CONTEXT ( 3 ) GLOBAL_UNCERTAINTY_ASSIGNED_CONTEXT ( ( #184 ) ) GLOBAL_UNIT_ASSIGNED_CONTEXT ( ( #281, #221, #80 ) ) REPRESENTATION_CONTEXT ( 'NONE', 'WORKASPACE' ) );
#13 = PERSON_AND_ORGANIZATION ( #293, #66 ) ;
#14 = EDGE_CURVE ( 'NONE', #1, #18, #212, .T. ) ;
#15 = LOCAL_TIME ( 10, 4, 1.000000000000000000, #60 ) ;
#16 = DIRECTION ( 'NONE',  ( 0.0000000000000000000, 1.000000000000000000, 2.168404344971008868E-16 ) ) ;
#17 = LOCAL_TIME ( 10, 4, 1.000000000000000000, #152 ) ;
#18 = VERTEX_POINT ( 'NONE', #189 ) ;
#19 = AXIS2_PLACEMENT_3D ( 'NONE', #103, #260, #239 ) ;
#20 = PLANE ( 'NONE',  #119 ) ;
#21 = APPLICATION_CONTEXT ( 'configuration controlled 3d designs of mechanical parts and assemblies' ) ;
#22 = CARTESIAN_POINT ( 'NONE',  ( 0.6326764090625426329, -0.02510035448415135623, 1.142007087484989691 ) ) ;
#23 = AXIS2_PLACEMENT_3D ( 'NONE', #210, #127, #16 ) ;
#24 = CARTESIAN_POINT ( 'NONE',  ( 0.0000000000000000000, 0.0000000000000000000, 0.0000000000000000000 ) ) ;
#25 = ADVANCED_FACE ( 'NONE', ( #274 ), #188, .T. ) ;
#26 = DATE_AND_TIME ( #87, #17 ) ;
#27 = DIRECTION ( 'NONE',  ( 0.0000000000000000000, 1.000000000000000000, 2.168404344971008868E-16 ) ) ;
#28 = DIRECTION ( 'NONE',  ( 0.0000000000000000000, 1.000000000000000000, 1.224646799147353454E-16 ) ) ;
#29 = ORIENTED_EDGE ( 'NONE', *, *, #187, .T. ) ;
#30 = CIRCLE ( 'NONE', #19, 3.139000000000000234 ) ;
#31 = EDGE_LOOP ( 'NONE', ( #218, #59, #238, #99 ) ) ;
#32 = CIRCLE ( 'NONE', #183, 1.000000000000000000 ) ;
#33 = AXIS2_PLACEMENT_3D ( 'NONE', #163, #101, #94 ) ;
#34 = ORIENTED_EDGE ( 'NONE', *, *, #220, .T. ) ;
#35 = CYLINDRICAL_SURFACE ( 'NONE', #202, 1.000000000000000000 ) ;
#36 = FACE_OUTER_BOUND ( 'NONE', #226, .T. ) ;
#37 = APPROVAL_STATUS ( 'not_yet_approved' ) ;
#38 = SECURITY_CLASSIFICATION_LEVEL ( 'unclassified' ) ;
#39 = ORIENTED_EDGE ( 'NONE', *, *, #14, .T. ) ;
#40 = EDGE_LOOP ( 'NONE', ( #199, #164, #71 ) ) ;
#41 = DATE_AND_TIME ( #245, #228 ) ;
#42 = AXIS2_PLACEMENT_3D ( 'NONE', #172, #134, #27 ) ;
#43 = ORIENTED_EDGE ( 'NONE', *, *, #173, .F. ) ;
#44 = PERSON_AND_ORGANIZATION_ROLE ( 'classification_officer' ) ;
#45 = DIRECTION ( 'NONE',  ( 0.0000000000000000000, -1.224646799147353454E-16, 1.000000000000000000 ) ) ;
#46 = APPROVAL ( #37, 'UNSPECIFIED' ) ;
#47 = VECTOR ( 'NONE', #282, 1000.000000000000114 ) ;
#48 = ORIENTED_EDGE ( 'NONE', *, *, #237, .T. ) ;
#49 = DIRECTION ( 'NONE',  ( 0.0000000000000000000, 0.7071067811865500152, -0.7071067811865451302 ) ) ;
#50 = DATE_TIME_ROLE ( 'creation_date' ) ;
#51 = FACE_OUTER_BOUND ( 'NONE', #277, .T. ) ;
#52 = DIRECTION ( 'NONE',  ( 0.0000000000000000000, -1.224646799147353454E-16, 1.000000000000000000 ) ) ;
#53 = DIRECTION ( 'NONE',  ( 0.0000000000000000000, -1.000000000000000000, -2.282530889443167022E-16 ) ) ;
#54 = CC_DESIGN_DATE_AND_TIME_ASSIGNMENT ( #295, #186, ( #209 ) ) ;
#55 = DIRECTION ( 'NONE',  ( 1.000000000000000000, 0.0000000000000000000, -0.0000000000000000000 ) ) ;
#56 = CARTESIAN_POINT ( 'NONE',  ( 0.6326764090625426329, 1.924899645515848690, 1.142007087484990135 ) ) ;
#57 = FACE_OUTER_BOUND ( 'NONE', #31, .T. ) ;
#58 = CARTESIAN_POINT ( 'NONE',  ( 0.6326764090625426329, 0.02489964551584877492, 1.994799359685718976 ) ) ;
#59 = ORIENTED_EDGE ( 'NONE', *, *, #138, .T. ) ;
#60 = COORDINATED_UNIVERSAL_TIME_OFFSET ( 5, 0, .BEHIND. ) ;
#61 = ADVANCED_FACE ( 'NONE', ( #300 ), #225, .T. ) ;
#62 = PERSON_AND_ORGANIZATION ( #293, #66 ) ;
#63 = VECTOR ( 'NONE', #76, 1000.000000000000000 ) ;
#64 = CC_DESIGN_APPROVAL ( #46, ( #209 ) ) ;
#65 = ORIENTED_EDGE ( 'NONE', *, *, #14, .F. ) ;
#66 = ORGANIZATION ( 'UNSPECIFIED', 'UNSPECIFIED', '' ) ;
#67 = LINE ( 'NONE', #266, #157 ) ;
#68 = DESIGN_CONTEXT ( 'detailed design', #21, 'design' ) ;
#69 = VERTEX_POINT ( 'NONE', #56 ) ;
#70 = AXIS2_PLACEMENT_3D ( 'NONE', #125, #144, #301 ) ;
#71 = ORIENTED_EDGE ( 'NONE', *, *, #259, .F. ) ;
#72 = CARTESIAN_POINT ( 'NONE',  ( 0.6326764090625426329, -0.02510035448415135623, 1.192007087484989736 ) ) ;
#73 = FACE_OUTER_BOUND ( 'NONE', #233, .T. ) ;
#74 = CARTESIAN_POINT ( 'NONE',  ( 0.6326764090625425219, 1.924899645515848245, 1.994799359685718976 ) ) ;
#75 = CARTESIAN_POINT ( 'NONE',  ( 0.6326764090625425219, 0.9748996455158486230, 1.192007087484989958 ) ) ;
#76 = DIRECTION ( 'NONE',  ( -0.0000000000000000000, 1.224646799147353454E-16, -1.000000000000000000 ) ) ;
#77 = AXIS2_PLACEMENT_3D ( 'NONE', #154, #224, #222 ) ;
#78 = APPROVAL_ROLE ( '' ) ;
#79 = CARTESIAN_POINT ( 'NONE',  ( 0.6326764090625425219, 0.9748996455158485119, 1.944799359685719153 ) ) ;
#80 =( NAMED_UNIT ( * ) SI_UNIT ( $, .STERADIAN. ) SOLID_ANGLE_UNIT ( ) );
#81 = CARTESIAN_POINT ( 'NONE',  ( 0.6326764090625425219, 0.9748996455158486230, 1.142007087484989913 ) ) ;
#82 = ORIENTED_EDGE ( 'NONE', *, *, #291, .F. ) ;
#83 = CC_DESIGN_SECURITY_CLASSIFICATION ( #209, ( #91 ) ) ;
#84 = CARTESIAN_POINT ( 'NONE',  ( 0.6326764090625425219, 0.9748996455158486230, 1.142007087484989913 ) ) ;
#85 = CALENDAR_DATE ( 2019, 24, 10 ) ;
#86 = EDGE_CURVE ( 'NONE', #88, #206, #254, .T. ) ;
#87 = CALENDAR_DATE ( 2019, 24, 10 ) ;
#88 = VERTEX_POINT ( 'NONE', #286 ) ;
#89 = VECTOR ( 'NONE', #247, 1000.000000000000000 ) ;
#90 = APPROVAL_ROLE ( '' ) ;
#91 = PRODUCT_DEFINITION_FORMATION_WITH_SPECIFIED_SOURCE ( 'ANY', '', #198, .NOT_KNOWN. ) ;
#92 = APPROVAL_DATE_TIME ( #26, #46 ) ;
#93 = ORIENTED_EDGE ( 'NONE', *, *, #272, .T. ) ;
#94 = DIRECTION ( 'NONE',  ( 0.0000000000000000000, 1.000000000000000000, 2.282530889443167022E-16 ) ) ;
#95 = ORIENTED_EDGE ( 'NONE', *, *, #291, .T. ) ;
#96 = EDGE_CURVE ( 'NONE', #255, #18, #11, .T. ) ;
#97 = CARTESIAN_POINT ( 'NONE',  ( 0.6326764090625425219, 0.02489964551584855634, 1.142007087484989691 ) ) ;
#98 = CYLINDRICAL_SURFACE ( 'NONE', #42, 1.000000000000000000 ) ;
#99 = ORIENTED_EDGE ( 'NONE', *, *, #257, .F. ) ;
#100 = AXIS2_PLACEMENT_3D ( 'NONE', #24, #216, #287 ) ;
#101 = DIRECTION ( 'NONE',  ( -0.0000000000000000000, 1.224646799147353454E-16, -1.000000000000000000 ) ) ;
#102 = AXIS2_PLACEMENT_3D ( 'NONE', #191, #241, #299 ) ;
#103 = CARTESIAN_POINT ( 'NONE',  ( 0.6326764090625425219, 0.9748996455158485119, -0.9969929125150098770 ) ) ;
#104 = ORIENTED_EDGE ( 'NONE', *, *, #230, .T. ) ;
#105 = APPROVAL_PERSON_ORGANIZATION ( #285, #46, #90 ) ;
#106 = DIRECTION ( 'NONE',  ( 0.0000000000000000000, 1.000000000000000000, 0.0000000000000000000 ) ) ;
#107 = CARTESIAN_POINT ( 'NONE',  ( 0.6326764090625425219, 1.974899645515848734, 1.142007087484990135 ) ) ;
#108 = ADVANCED_FACE ( 'NONE', ( #275 ), #35, .T. ) ;
#109 = CC_DESIGN_PERSON_AND_ORGANIZATION_ASSIGNMENT ( #185, #248, ( #91 ) ) ;
#110 = DIRECTION ( 'NONE',  ( 0.0000000000000000000, 1.000000000000000000, 1.381589260892646422E-16 ) ) ;
#111 = DIRECTION ( 'NONE',  ( 0.0000000000000000000, -1.000000000000000000, -2.282530889443167022E-16 ) ) ;
#112 = VERTEX_POINT ( 'NONE', #166 ) ;
#113 = ADVANCED_FACE ( 'NONE', ( #57 ), #231, .T. ) ;
#114 = DIRECTION ( 'NONE',  ( 0.0000000000000000000, -1.224646799147353454E-16, 1.000000000000000000 ) ) ;
#115 = EDGE_LOOP ( 'NONE', ( #284, #159, #65, #223 ) ) ;
#116 = VECTOR ( 'NONE', #49, 1000.000000000000114 ) ;
#117 = ORIENTED_EDGE ( 'NONE', *, *, #187, .F. ) ;
#118 = DATE_AND_TIME ( #85, #252 ) ;
#119 = AXIS2_PLACEMENT_3D ( 'NONE', #81, #176, #28 ) ;
#120 = ORIENTED_EDGE ( 'NONE', *, *, #96, .F. ) ;
#121 = EDGE_CURVE ( 'NONE', #69, #18, #67, .T. ) ;
#122 = CC_DESIGN_PERSON_AND_ORGANIZATION_ASSIGNMENT ( #256, #149, ( #198 ) ) ;
#123 = CALENDAR_DATE ( 2019, 24, 10 ) ;
#124 = PRODUCT_RELATED_PRODUCT_CATEGORY ( 'detail', '', ( #198 ) ) ;
#125 = CARTESIAN_POINT ( 'NONE',  ( 0.6326764090625425219, 0.9748996455158486230, 1.192007087484989958 ) ) ;
#126 = AXIS2_PLACEMENT_3D ( 'NONE', #131, #55, #7 ) ;
#127 = DIRECTION ( 'NONE',  ( -0.0000000000000000000, 1.224646799147353454E-16, -1.000000000000000000 ) ) ;
#128 = CIRCLE ( 'NONE', #77, 0.9499999999999997335 ) ;
#129 = DIRECTION ( 'NONE',  ( -1.381589260892646422E-16, 1.000000000000000000, 0.0000000000000000000 ) ) ;
#130 = DIRECTION ( 'NONE',  ( 0.0000000000000000000, 1.000000000000000000, 2.168404344971008868E-16 ) ) ;
#131 = CARTESIAN_POINT ( 'NONE',  ( 0.6326764090625425219, 0.9748996455158485119, -0.9969929125150098770 ) ) ;
#132 = PERSON_AND_ORGANIZATION ( #293, #66 ) ;
#133 = DIRECTION ( 'NONE',  ( 0.0000000000000000000, 1.000000000000000000, 2.168404344971008868E-16 ) ) ;
#134 = DIRECTION ( 'NONE',  ( -0.0000000000000000000, 1.224646799147353454E-16, -1.000000000000000000 ) ) ;
#135 = CARTESIAN_POINT ( 'NONE',  ( 0.6326764090625425219, 0.9748996455158485119, 1.944799359685719153 ) ) ;
#136 = CONICAL_SURFACE ( 'NONE', #10, 0.9500000000000000666, 0.7853981633974482790 ) ;
#137 = CARTESIAN_POINT ( 'NONE',  ( 0.6326764090625425219, 0.9748996455158485119, 1.944799359685719153 ) ) ;
#138 = EDGE_CURVE ( 'NONE', #206, #112, #203, .T. ) ;
#139 = APPROVAL ( #283, 'UNSPECIFIED' ) ;
#140 = APPROVAL_DATE_TIME ( #118, #139 ) ;
#141 = LINE ( 'NONE', #22, #89 ) ;
#142 = SPHERICAL_SURFACE ( 'NONE', #126, 3.139000000000000234 ) ;
#143 = CARTESIAN_POINT ( 'NONE',  ( 0.6326764090625425219, 0.9748996455158486230, 1.142007087484989913 ) ) ;
#144 = DIRECTION ( 'NONE',  ( 0.0000000000000000000, -1.224646799147353454E-16, 1.000000000000000000 ) ) ;
#145 = CARTESIAN_POINT ( 'NONE',  ( 0.6326764090625425219, 1.974899645515848734, 1.944799359685719375 ) ) ;
#146 = CARTESIAN_POINT ( 'NONE',  ( 0.6326764090625425219, 0.9748996455158485119, 1.994799359685718976 ) ) ;
#147 = COORDINATED_UNIVERSAL_TIME_OFFSET ( 5, 0, .BEHIND. ) ;
#148 = DIRECTION ( 'NONE',  ( 8.659560562354932858E-17, 0.7071067811865473507, 0.7071067811865477948 ) ) ;
#149 = PERSON_AND_ORGANIZATION_ROLE ( 'design_owner' ) ;
#150 = APPROVAL_ROLE ( '' ) ;
#151 = APPLICATION_PROTOCOL_DEFINITION ( 'international standard', 'config_control_design', 1994, #21 ) ;
#152 = COORDINATED_UNIVERSAL_TIME_OFFSET ( 5, 0, .BEHIND. ) ;
#153 = CARTESIAN_POINT ( 'NONE',  ( 0.6326764090625426329, -0.02510035448415146378, 1.944799359685718931 ) ) ;
#154 = CARTESIAN_POINT ( 'NONE',  ( 0.6326764090625425219, 0.9748996455158485119, 1.994799359685718976 ) ) ;
#155 = PRODUCT_DEFINITION ( 'UNKNOWN', '', #91, #68 ) ;
#156 = ORIENTED_EDGE ( 'NONE', *, *, #173, .T. ) ;
#157 = VECTOR ( 'NONE', #148, 999.9999999999998863 ) ;
#158 = APPROVAL ( #246, 'UNSPECIFIED' ) ;
#159 = ORIENTED_EDGE ( 'NONE', *, *, #121, .T. ) ;
#160 = EDGE_LOOP ( 'NONE', ( #93, #156, #39, #120 ) ) ;
#161 = APPROVAL_DATE_TIME ( #41, #158 ) ;
#162 = ORIENTED_EDGE ( 'NONE', *, *, #180, .T. ) ;
#163 = CARTESIAN_POINT ( 'NONE',  ( 0.6326764090625425219, 0.9748996455158486230, 1.142007087484989913 ) ) ;
#164 = ORIENTED_EDGE ( 'NONE', *, *, #86, .T. ) ;
#165 = FACE_OUTER_BOUND ( 'NONE', #160, .T. ) ;
#166 = CARTESIAN_POINT ( 'NONE',  ( 0.6326764090625426329, -0.02510035448415146378, 1.944799359685718931 ) ) ;
#167 = AXIS2_PLACEMENT_3D ( 'NONE', #250, #265, #110 ) ;
#168 = EDGE_LOOP ( 'NONE', ( #43, #162, #205, #95 ) ) ;
#169 = CIRCLE ( 'NONE', #102, 0.9500000000000000666 ) ;
#170 = CC_DESIGN_PERSON_AND_ORGANIZATION_ASSIGNMENT ( #62, #44, ( #209 ) ) ;
#171 = MECHANICAL_CONTEXT ( 'NONE', #194, 'mechanical' ) ;
#172 = CARTESIAN_POINT ( 'NONE',  ( 0.6326764090625425219, 0.9748996455158486230, 1.142007087484989913 ) ) ;
#173 = EDGE_CURVE ( 'NONE', #112, #1, #141, .T. ) ;
#174 = DIRECTION ( 'NONE',  ( -0.0000000000000000000, 1.224646799147353454E-16, -1.000000000000000000 ) ) ;
#175 = ADVANCED_FACE ( 'NONE', ( #165 ), #98, .T. ) ;
#176 = DIRECTION ( 'NONE',  ( -0.0000000000000000000, 1.224646799147353454E-16, -1.000000000000000000 ) ) ;
#177 = ORIENTED_EDGE ( 'NONE', *, *, #86, .F. ) ;
#178 = CIRCLE ( 'NONE', #270, 0.9499999999999997335 ) ;
#179 = CC_DESIGN_APPROVAL ( #139, ( #155 ) ) ;
#180 = EDGE_CURVE ( 'NONE', #112, #255, #217, .T. ) ;
#181 = LOCAL_TIME ( 10, 4, 1.000000000000000000, #298 ) ;
#182 = PERSON_AND_ORGANIZATION ( #293, #66 ) ;
#183 = AXIS2_PLACEMENT_3D ( 'NONE', #135, #214, #133 ) ;
#184 = UNCERTAINTY_MEASURE_WITH_UNIT (LENGTH_MEASURE( 1.000000000000000082E-05 ), #281, 'distance_accuracy_value', 'NONE');
#185 = PERSON_AND_ORGANIZATION ( #293, #66 ) ;
#186 = DATE_TIME_ROLE ( 'classification_date' ) ;
#187 = EDGE_CURVE ( 'NONE', #206, #235, #128, .T. ) ;
#188 = CONICAL_SURFACE ( 'NONE', #23, 1.000000000000000000, 0.7853981633974516097 ) ;
#189 = CARTESIAN_POINT ( 'NONE',  ( 0.6326764090625425219, 1.974899645515848734, 1.192007087484990180 ) ) ;
#190 = ORIENTED_EDGE ( 'NONE', *, *, #180, .F. ) ;
#191 = CARTESIAN_POINT ( 'NONE',  ( 0.6326764090625425219, 0.9748996455158486230, 1.142007087484989913 ) ) ;
#192 = APPROVAL_PERSON_ORGANIZATION ( #13, #158, #78 ) ;
#193 = PERSON_AND_ORGANIZATION_ROLE ( 'creator' ) ;
#194 = APPLICATION_CONTEXT ( 'configuration controlled 3d designs of mechanical parts and assemblies' ) ;
#195 = APPLICATION_PROTOCOL_DEFINITION ( 'international standard', 'config_control_design', 1994, #194 ) ;
#196 = CC_DESIGN_APPROVAL ( #158, ( #91 ) ) ;
#197 = ADVANCED_FACE ( 'NONE', ( #73 ), #20, .T. ) ;
#198 = PRODUCT ( 'TTN162739-E0W', 'TTN162739-E0W', '', ( #171 ) ) ;
#199 = ORIENTED_EDGE ( 'NONE', *, *, #220, .F. ) ;
#200 = DATE_AND_TIME ( #240, #15 ) ;
#201 = ADVANCED_FACE ( 'NONE', ( #36 ), #136, .T. ) ;
#202 = AXIS2_PLACEMENT_3D ( 'NONE', #264, #213, #130 ) ;
#203 = LINE ( 'NONE', #153, #47 ) ;
#204 = AXIS2_PLACEMENT_3D ( 'NONE', #75, #52, #267 ) ;
#205 = ORIENTED_EDGE ( 'NONE', *, *, #96, .T. ) ;
#206 = VERTEX_POINT ( 'NONE', #58 ) ;
#207 = APPROVAL_PERSON_ORGANIZATION ( #251, #139, #150 ) ;
#208 = AXIS2_PLACEMENT_3D ( 'NONE', #137, #271, #290 ) ;
#209 = SECURITY_CLASSIFICATION ( '', '', #38 ) ;
#210 = CARTESIAN_POINT ( 'NONE',  ( 0.6326764090625425219, 0.9748996455158485119, 1.944799359685719153 ) ) ;
#211 = SPHERICAL_SURFACE ( 'NONE', #167, 3.139000000000000234 ) ;
#212 = CIRCLE ( 'NONE', #70, 1.000000000000000000 ) ;
#213 = DIRECTION ( 'NONE',  ( -0.0000000000000000000, 1.224646799147353454E-16, -1.000000000000000000 ) ) ;
#214 = DIRECTION ( 'NONE',  ( -0.0000000000000000000, 1.224646799147353454E-16, -1.000000000000000000 ) ) ;
#215 = CLOSED_SHELL ( 'NONE', ( #61, #289, #113, #175, #197, #108, #25, #294, #201 ) ) ;
#216 = DIRECTION ( 'NONE',  ( 0.0000000000000000000, 0.0000000000000000000, 1.000000000000000000 ) ) ;
#217 = CIRCLE ( 'NONE', #208, 1.000000000000000000 ) ;
#218 = ORIENTED_EDGE ( 'NONE', *, *, #259, .T. ) ;
#219 = DIRECTION ( 'NONE',  ( -0.0000000000000000000, 1.224646799147353454E-16, -1.000000000000000000 ) ) ;
#220 = EDGE_CURVE ( 'NONE', #88, #235, #30, .T. ) ;
#221 =( NAMED_UNIT ( * ) PLANE_ANGLE_UNIT ( ) SI_UNIT ( $, .RADIAN. ) );
#222 = DIRECTION ( 'NONE',  ( 0.0000000000000000000, 1.000000000000000000, 0.0000000000000000000 ) ) ;
#223 = ORIENTED_EDGE ( 'NONE', *, *, #237, .F. ) ;
#224 = DIRECTION ( 'NONE',  ( -0.0000000000000000000, 1.224646799147353454E-16, -1.000000000000000000 ) ) ;
#225 = CONICAL_SURFACE ( 'NONE', #269, 0.9500000000000000666, 0.7853981633974482790 ) ;
#226 = EDGE_LOOP ( 'NONE', ( #263, #278, #48, #82 ) ) ;
#227 = LINE ( 'NONE', #97, #234 ) ;
#228 = LOCAL_TIME ( 10, 4, 1.000000000000000000, #5 ) ;
#229 = VERTEX_POINT ( 'NONE', #261 ) ;
#230 = EDGE_CURVE ( 'NONE', #229, #69, #169, .T. ) ;
#231 = CONICAL_SURFACE ( 'NONE', #296, 1.000000000000000000, 0.7853981633974516097 ) ;
#232 = EDGE_LOOP ( 'NONE', ( #244, #29, #288, #190 ) ) ;
#233 = EDGE_LOOP ( 'NONE', ( #104, #249 ) ) ;
#234 = VECTOR ( 'NONE', #3, 1000.000000000000000 ) ;
#235 = VERTEX_POINT ( 'NONE', #74 ) ;
#236 = CIRCLE ( 'NONE', #33, 0.9500000000000000666 ) ;
#237 = EDGE_CURVE ( 'NONE', #229, #1, #227, .T. ) ;
#238 = ORIENTED_EDGE ( 'NONE', *, *, #272, .F. ) ;
#239 = DIRECTION ( 'NONE',  ( 0.0000000000000000000, 0.0000000000000000000, 1.000000000000000000 ) ) ;
#240 = CALENDAR_DATE ( 2019, 24, 10 ) ;
#241 = DIRECTION ( 'NONE',  ( -0.0000000000000000000, 1.224646799147353454E-16, -1.000000000000000000 ) ) ;
#242 = MANIFOLD_SOLID_BREP ( 'TTN162688-1-solid1', #215 ) ;
#243 = DIRECTION ( 'NONE',  ( 1.000000000000000000, 1.224646799147353207E-16, 1.499759782661857882E-32 ) ) ;
#244 = ORIENTED_EDGE ( 'NONE', *, *, #138, .F. ) ;
#245 = CALENDAR_DATE ( 2019, 24, 10 ) ;
#246 = APPROVAL_STATUS ( 'not_yet_approved' ) ;
#247 = DIRECTION ( 'NONE',  ( -0.0000000000000000000, 1.224646799147353454E-16, -1.000000000000000000 ) ) ;
#248 = PERSON_AND_ORGANIZATION_ROLE ( 'creator' ) ;
#249 = ORIENTED_EDGE ( 'NONE', *, *, #253, .T. ) ;
#250 = CARTESIAN_POINT ( 'NONE',  ( 0.6326764090625425219, 0.9748996455158485119, -0.9969929125150098770 ) ) ;
#251 = PERSON_AND_ORGANIZATION ( #293, #66 ) ;
#252 = LOCAL_TIME ( 10, 4, 1.000000000000000000, #147 ) ;
#253 = EDGE_CURVE ( 'NONE', #69, #229, #236, .T. ) ;
#254 = CIRCLE ( 'NONE', #2, 3.139000000000000234 ) ;
#255 = VERTEX_POINT ( 'NONE', #279 ) ;
#256 = PERSON_AND_ORGANIZATION ( #293, #66 ) ;
#257 = EDGE_CURVE ( 'NONE', #235, #255, #273, .T. ) ;
#258 = CC_DESIGN_DATE_AND_TIME_ASSIGNMENT ( #200, #50, ( #155 ) ) ;
#259 = EDGE_CURVE ( 'NONE', #235, #206, #178, .T. ) ;
#260 = DIRECTION ( 'NONE',  ( -1.000000000000000000, 0.0000000000000000000, 0.0000000000000000000 ) ) ;
#261 = CARTESIAN_POINT ( 'NONE',  ( 0.6326764090625425219, 0.02489964551584855634, 1.142007087484989691 ) ) ;
#262 = CIRCLE ( 'NONE', #204, 1.000000000000000000 ) ;
#263 = ORIENTED_EDGE ( 'NONE', *, *, #121, .F. ) ;
#264 = CARTESIAN_POINT ( 'NONE',  ( 0.6326764090625425219, 0.9748996455158486230, 1.142007087484989913 ) ) ;
#265 = DIRECTION ( 'NONE',  ( 1.000000000000000000, 0.0000000000000000000, -0.0000000000000000000 ) ) ;
#266 = CARTESIAN_POINT ( 'NONE',  ( 0.6326764090625426329, 1.924899645515848690, 1.142007087484990135 ) ) ;
#267 = DIRECTION ( 'NONE',  ( 0.0000000000000000000, 1.000000000000000000, 2.168404344971008868E-16 ) ) ;
#268 = CC_DESIGN_PERSON_AND_ORGANIZATION_ASSIGNMENT ( #182, #193, ( #155 ) ) ;
#269 = AXIS2_PLACEMENT_3D ( 'NONE', #143, #45, #53 ) ;
#270 = AXIS2_PLACEMENT_3D ( 'NONE', #146, #174, #106 ) ;
#271 = DIRECTION ( 'NONE',  ( -0.0000000000000000000, 1.224646799147353454E-16, -1.000000000000000000 ) ) ;
#272 = EDGE_CURVE ( 'NONE', #255, #112, #32, .T. ) ;
#273 = LINE ( 'NONE', #145, #116 ) ;
#274 = FACE_OUTER_BOUND ( 'NONE', #232, .T. ) ;
#275 = FACE_OUTER_BOUND ( 'NONE', #168, .T. ) ;
#276 = FACE_OUTER_BOUND ( 'NONE', #40, .T. ) ;
#277 = EDGE_LOOP ( 'NONE', ( #177, #34, #117 ) ) ;
#278 = ORIENTED_EDGE ( 'NONE', *, *, #230, .F. ) ;
#279 = CARTESIAN_POINT ( 'NONE',  ( 0.6326764090625425219, 1.974899645515848734, 1.944799359685719375 ) ) ;
#280 = DIRECTION ( 'NONE',  ( 0.0000000000000000000, 1.000000000000000000, 2.168404344971008868E-16 ) ) ;
#281 =( LENGTH_UNIT ( ) NAMED_UNIT ( * ) SI_UNIT ( .MILLI., .METRE. ) );
#282 = DIRECTION ( 'NONE',  ( 8.659560562354961208E-17, -0.7071067811865497932, -0.7071067811865453523 ) ) ;
#283 = APPROVAL_STATUS ( 'not_yet_approved' ) ;
#284 = ORIENTED_EDGE ( 'NONE', *, *, #253, .F. ) ;
#285 = PERSON_AND_ORGANIZATION ( #293, #66 ) ;
#286 = CARTESIAN_POINT ( 'NONE',  ( 0.6326764090625425219, 0.9748996455158482899, 2.142007087484990357 ) ) ;
#287 = DIRECTION ( 'NONE',  ( 1.000000000000000000, 0.0000000000000000000, 0.0000000000000000000 ) ) ;
#288 = ORIENTED_EDGE ( 'NONE', *, *, #257, .T. ) ;
#289 = ADVANCED_FACE ( 'NONE', ( #276 ), #211, .T. ) ;
#290 = DIRECTION ( 'NONE',  ( 0.0000000000000000000, 1.000000000000000000, 2.168404344971008868E-16 ) ) ;
#291 = EDGE_CURVE ( 'NONE', #18, #1, #262, .T. ) ;
#292 = SHAPE_DEFINITION_REPRESENTATION ( #6, #297 ) ;
#293 = PERSON ( 'UNSPECIFIED', 'UNSPECIFIED', 'UNSPECIFIED', ('UNSPECIFIED'), ('UNSPECIFIED'), ('UNSPECIFIED') ) ;
#294 = ADVANCED_FACE ( 'NONE', ( #51 ), #142, .T. ) ;
#295 = DATE_AND_TIME ( #123, #181 ) ;
#296 = AXIS2_PLACEMENT_3D ( 'NONE', #79, #219, #280 ) ;
#297 = ADVANCED_BREP_SHAPE_REPRESENTATION ( 'TTN162739-E0W', ( #242, #100 ), #12 ) ;
#298 = COORDINATED_UNIVERSAL_TIME_OFFSET ( 5, 0, .BEHIND. ) ;
#299 = DIRECTION ( 'NONE',  ( 0.0000000000000000000, 1.000000000000000000, 2.282530889443167022E-16 ) ) ;
#300 = FACE_OUTER_BOUND ( 'NONE', #115, .T. ) ;
#301 = DIRECTION ( 'NONE',  ( 0.0000000000000000000, 1.000000000000000000, 2.168404344971008868E-16 ) ) ;
ENDSEC;
END-ISO-10303-21;
