ISO-10303-21;
HEADER;
FILE_DESCRIPTION (( 'STEP AP203' ),
    '1' );
FILE_NAME ('Web Model 32269_46696.step',
    '2020-01-31T18:53:27',
    ( '' ),
    ( '' ),
    'SwSTEP 2.0',
    'SolidWorks 2018',
    '' );
FILE_SCHEMA (( 'CONFIG_CONTROL_DESIGN' ));
ENDSEC;

DATA;
#1 = DESIGN_CONTEXT ( 'detailed design', #116, 'design' ) ;
#2 = APPLICATION_CONTEXT ( 'configuration controlled 3d designs of mechanical parts and assemblies' ) ;
#3 = PRODUCT ( 'Web Model 32269_46696', 'Web Model 32269_46696', '', ( #92 ) ) ;
#4 = PERSON_AND_ORGANIZATION_ROLE ( 'design_owner' ) ;
#5 = VERTEX_POINT ( 'NONE', #82 ) ;
#6 = PERSON_AND_ORGANIZATION_ROLE ( 'creator' ) ;
#7 = DATE_TIME_ROLE ( 'classification_date' ) ;
#8 = APPROVAL_ROLE ( '' ) ;
#9 = LOCAL_TIME ( 13, 53, 27.00000000000000000, #142 ) ;
#10 = LINE ( 'NONE', #69, #131 ) ;
#11 = ORIENTED_EDGE ( 'NONE', *, *, #22, .F. ) ;
#12 = APPROVAL_DATE_TIME ( #237, #212 ) ;
#13 = EDGE_CURVE ( 'NONE', #153, #159, #219, .T. ) ;
#14 = ORIENTED_EDGE ( 'NONE', *, *, #53, .T. ) ;
#15 = DIRECTION ( 'NONE',  ( -1.284980352575412699E-16, 1.000000000000000000, -0.0000000000000000000 ) ) ;
#16 = LINE ( 'NONE', #45, #136 ) ;
#17 = CC_DESIGN_PERSON_AND_ORGANIZATION_ASSIGNMENT ( #149, #155, ( #120 ) ) ;
#18 = FACE_OUTER_BOUND ( 'NONE', #121, .T. ) ;
#19 = PRODUCT_RELATED_PRODUCT_CATEGORY ( 'detail', '', ( #3 ) ) ;
#20 = LINE ( 'NONE', #176, #213 ) ;
#21 = DIRECTION ( 'NONE',  ( 1.000000000000000000, 0.0000000000000000000, 0.0000000000000000000 ) ) ;
#22 = EDGE_CURVE ( 'NONE', #191, #222, #16, .T. ) ;
#23 = ORIENTED_EDGE ( 'NONE', *, *, #170, .F. ) ;
#24 = EDGE_LOOP ( 'NONE', ( #128, #145, #39, #235 ) ) ;
#25 = APPROVAL ( #48, 'UNSPECIFIED' ) ;
#26 = CALENDAR_DATE ( 2020, 31, 1 ) ;
#27 = EDGE_LOOP ( 'NONE', ( #143, #168, #72, #57 ) ) ;
#28 = PLANE ( 'NONE',  #232 ) ;
#29 = EDGE_CURVE ( 'NONE', #30, #153, #20, .T. ) ;
#30 = VERTEX_POINT ( 'NONE', #198 ) ;
#31 = DIRECTION ( 'NONE',  ( 1.000000000000000000, 0.0000000000000000000, 0.0000000000000000000 ) ) ;
#32 = VECTOR ( 'NONE', #35, 1000.000000000000000 ) ;
#33 = CARTESIAN_POINT ( 'NONE',  ( -10.00000000000000178, 13.49999999999999822, 0.5000000000000000000 ) ) ;
#34 = LINE ( 'NONE', #147, #177 ) ;
#35 = DIRECTION ( 'NONE',  ( 1.000000000000000000, 0.0000000000000000000, 0.0000000000000000000 ) ) ;
#36 = DIRECTION ( 'NONE',  ( -1.000000000000000000, -0.0000000000000000000, -0.0000000000000000000 ) ) ;
#37 = LOCAL_TIME ( 13, 53, 27.00000000000000000, #99 ) ;
#38 = CC_DESIGN_APPROVAL ( #25, ( #146 ) ) ;
#39 = ORIENTED_EDGE ( 'NONE', *, *, #203, .F. ) ;
#40 = LOCAL_TIME ( 13, 53, 27.00000000000000000, #215 ) ;
#41 = DIRECTION ( 'NONE',  ( -0.0000000000000000000, -0.0000000000000000000, -1.000000000000000000 ) ) ;
#42 = EDGE_CURVE ( 'NONE', #30, #44, #164, .T. ) ;
#43 = LOCAL_TIME ( 13, 53, 27.00000000000000000, #162 ) ;
#44 = VERTEX_POINT ( 'NONE', #236 ) ;
#45 = CARTESIAN_POINT ( 'NONE',  ( -10.00000000000000178, 13.49999999999999822, 0.5000000000000000000 ) ) ;
#46 = CARTESIAN_POINT ( 'NONE',  ( -10.00000000000000178, 13.49999999999999822, 0.5000000000000000000 ) ) ;
#47 = LOCAL_TIME ( 13, 53, 27.00000000000000000, #88 ) ;
#48 = APPROVAL_STATUS ( 'not_yet_approved' ) ;
#49 = CC_DESIGN_SECURITY_CLASSIFICATION ( #146, ( #120 ) ) ;
#50 = LINE ( 'NONE', #183, #75 ) ;
#51 = CARTESIAN_POINT ( 'NONE',  ( 9.999999999999998224, 13.49999999999999822, 0.5000000000000000000 ) ) ;
#52 = ORIENTED_EDGE ( 'NONE', *, *, #13, .T. ) ;
#53 = EDGE_CURVE ( 'NONE', #153, #5, #114, .T. ) ;
#54 = DATE_TIME_ROLE ( 'creation_date' ) ;
#55 = PERSON_AND_ORGANIZATION ( #70, #190 ) ;
#56 = APPROVAL_DATE_TIME ( #196, #182 ) ;
#57 = ORIENTED_EDGE ( 'NONE', *, *, #42, .T. ) ;
#58 = ADVANCED_FACE ( 'NONE', ( #173 ), #28, .F. ) ;
#59 = ORIENTED_EDGE ( 'NONE', *, *, #53, .F. ) ;
#60 = DIRECTION ( 'NONE',  ( -0.0000000000000000000, -0.0000000000000000000, -1.000000000000000000 ) ) ;
#61 = LINE ( 'NONE', #90, #101 ) ;
#62 = ORIENTED_EDGE ( 'NONE', *, *, #185, .F. ) ;
#63 = DIRECTION ( 'NONE',  ( 0.0000000000000000000, -0.0000000000000000000, 1.000000000000000000 ) ) ;
#64 = UNCERTAINTY_MEASURE_WITH_UNIT (LENGTH_MEASURE( 1.000000000000000082E-05 ), #220, 'distance_accuracy_value', 'NONE');
#65 = FACE_OUTER_BOUND ( 'NONE', #27, .T. ) ;
#66 = PLANE ( 'NONE',  #165 ) ;
#67 = CARTESIAN_POINT ( 'NONE',  ( 10.00000000000000178, -13.50000000000000178, 0.5000000000000000000 ) ) ;
#68 = PERSON_AND_ORGANIZATION ( #70, #190 ) ;
#69 = CARTESIAN_POINT ( 'NONE',  ( -10.00000000000000178, 13.49999999999999822, 0.5000000000000000000 ) ) ;
#70 = PERSON ( 'UNSPECIFIED', 'UNSPECIFIED', 'UNSPECIFIED', ('UNSPECIFIED'), ('UNSPECIFIED'), ('UNSPECIFIED') ) ;
#71 = SECURITY_CLASSIFICATION_LEVEL ( 'unclassified' ) ;
#72 = ORIENTED_EDGE ( 'NONE', *, *, #29, .F. ) ;
#73 = DIRECTION ( 'NONE',  ( 0.0000000000000000000, 0.0000000000000000000, 1.000000000000000000 ) ) ;
#74 = EDGE_CURVE ( 'NONE', #5, #197, #34, .T. ) ;
#75 = VECTOR ( 'NONE', #202, 1000.000000000000000 ) ;
#76 = ADVANCED_FACE ( 'NONE', ( #65 ), #181, .F. ) ;
#77 = CC_DESIGN_PERSON_AND_ORGANIZATION_ASSIGNMENT ( #55, #4, ( #3 ) ) ;
#78 = EDGE_LOOP ( 'NONE', ( #84, #229, #59, #52 ) ) ;
#79 = APPROVAL_PERSON_ORGANIZATION ( #139, #25, #137 ) ;
#80 = ORIENTED_EDGE ( 'NONE', *, *, #185, .T. ) ;
#81 =( GEOMETRIC_REPRESENTATION_CONTEXT ( 3 ) GLOBAL_UNCERTAINTY_ASSIGNED_CONTEXT ( ( #64 ) ) GLOBAL_UNIT_ASSIGNED_CONTEXT ( ( #220, #96, #113 ) ) REPRESENTATION_CONTEXT ( 'NONE', 'WORKASPACE' ) );
#82 = CARTESIAN_POINT ( 'NONE',  ( 9.999999999999998224, 13.49999999999999822, 0.5000000000000000000 ) ) ;
#83 = CALENDAR_DATE ( 2020, 31, 1 ) ;
#84 = ORIENTED_EDGE ( 'NONE', *, *, #170, .T. ) ;
#85 = PLANE ( 'NONE',  #157 ) ;
#86 = DIRECTION ( 'NONE',  ( 0.0000000000000000000, -1.000000000000000000, 0.0000000000000000000 ) ) ;
#87 = CC_DESIGN_DATE_AND_TIME_ASSIGNMENT ( #104, #54, ( #163 ) ) ;
#88 = COORDINATED_UNIVERSAL_TIME_OFFSET ( 5, 0, .BEHIND. ) ;
#89 = MANIFOLD_SOLID_BREP ( 'Boss-Extrude1', #95 ) ;
#90 = CARTESIAN_POINT ( 'NONE',  ( 9.999999999999998224, 13.49999999999999822, -0.5000000000000000000 ) ) ;
#91 = CARTESIAN_POINT ( 'NONE',  ( -9.999999999999998224, -13.50000000000000178, -0.5000000000000000000 ) ) ;
#92 = MECHANICAL_CONTEXT ( 'NONE', #2, 'mechanical' ) ;
#93 = LINE ( 'NONE', #91, #32 ) ;
#94 = CC_DESIGN_APPROVAL ( #212, ( #163 ) ) ;
#95 = CLOSED_SHELL ( 'NONE', ( #227, #174, #102, #76, #160, #58 ) ) ;
#96 =( NAMED_UNIT ( * ) PLANE_ANGLE_UNIT ( ) SI_UNIT ( $, .RADIAN. ) );
#97 = PLANE ( 'NONE',  #125 ) ;
#98 = CARTESIAN_POINT ( 'NONE',  ( 0.0000000000000000000, 0.0000000000000000000, 0.0000000000000000000 ) ) ;
#99 = COORDINATED_UNIVERSAL_TIME_OFFSET ( 5, 0, .BEHIND. ) ;
#100 = AXIS2_PLACEMENT_3D ( 'NONE', #33, #86, #204 ) ;
#101 = VECTOR ( 'NONE', #221, 1000.000000000000000 ) ;
#102 = ADVANCED_FACE ( 'NONE', ( #189 ), #85, .F. ) ;
#103 = ORIENTED_EDGE ( 'NONE', *, *, #29, .T. ) ;
#104 = DATE_AND_TIME ( #26, #37 ) ;
#105 = CC_DESIGN_APPROVAL ( #182, ( #120 ) ) ;
#106 = DIRECTION ( 'NONE',  ( -0.0000000000000000000, 0.0000000000000000000, 1.000000000000000000 ) ) ;
#107 = APPROVAL_DATE_TIME ( #158, #25 ) ;
#108 = EDGE_LOOP ( 'NONE', ( #23, #175, #119, #226 ) ) ;
#109 = VECTOR ( 'NONE', #133, 1000.000000000000000 ) ;
#110 = CARTESIAN_POINT ( 'NONE',  ( 0.0000000000000000000, 0.0000000000000000000, 0.5000000000000000000 ) ) ;
#111 = CARTESIAN_POINT ( 'NONE',  ( -9.999999999999998224, -13.50000000000000178, 0.5000000000000000000 ) ) ;
#112 = CALENDAR_DATE ( 2020, 31, 1 ) ;
#113 =( NAMED_UNIT ( * ) SI_UNIT ( $, .STERADIAN. ) SOLID_ANGLE_UNIT ( ) );
#114 = LINE ( 'NONE', #194, #132 ) ;
#115 = APPROVAL_STATUS ( 'not_yet_approved' ) ;
#116 = APPLICATION_CONTEXT ( 'configuration controlled 3d designs of mechanical parts and assemblies' ) ;
#117 = VECTOR ( 'NONE', #41, 1000.000000000000000 ) ;
#118 = PERSON_AND_ORGANIZATION ( #70, #190 ) ;
#119 = ORIENTED_EDGE ( 'NONE', *, *, #192, .F. ) ;
#120 = PRODUCT_DEFINITION_FORMATION_WITH_SPECIFIED_SOURCE ( 'ANY', '', #3, .NOT_KNOWN. ) ;
#121 = EDGE_LOOP ( 'NONE', ( #14, #80, #207, #103 ) ) ;
#122 = DIRECTION ( 'NONE',  ( 1.000000000000000000, 0.0000000000000000000, 0.0000000000000000000 ) ) ;
#123 = PERSON_AND_ORGANIZATION ( #70, #190 ) ;
#124 = DIRECTION ( 'NONE',  ( -0.0000000000000000000, -0.0000000000000000000, -1.000000000000000000 ) ) ;
#125 = AXIS2_PLACEMENT_3D ( 'NONE', #51, #154, #186 ) ;
#126 = ADVANCED_BREP_SHAPE_REPRESENTATION ( 'Web Model 32269_46696', ( #89, #150 ), #81 ) ;
#127 = CARTESIAN_POINT ( 'NONE',  ( -9.999999999999998224, -13.50000000000000178, 0.5000000000000000000 ) ) ;
#128 = ORIENTED_EDGE ( 'NONE', *, *, #192, .T. ) ;
#129 = DIRECTION ( 'NONE',  ( 0.0000000000000000000, 1.000000000000000000, 0.0000000000000000000 ) ) ;
#130 = PLANE ( 'NONE',  #100 ) ;
#131 = VECTOR ( 'NONE', #151, 1000.000000000000000 ) ;
#132 = VECTOR ( 'NONE', #15, 1000.000000000000000 ) ;
#133 = DIRECTION ( 'NONE',  ( 1.284980352575412699E-16, -1.000000000000000000, 0.0000000000000000000 ) ) ;
#134 = CC_DESIGN_PERSON_AND_ORGANIZATION_ASSIGNMENT ( #118, #167, ( #120 ) ) ;
#135 = VECTOR ( 'NONE', #36, 1000.000000000000000 ) ;
#136 = VECTOR ( 'NONE', #124, 1000.000000000000000 ) ;
#137 = APPROVAL_ROLE ( '' ) ;
#138 = CARTESIAN_POINT ( 'NONE',  ( -10.00000000000000178, 13.49999999999999822, -0.5000000000000000000 ) ) ;
#139 = PERSON_AND_ORGANIZATION ( #70, #190 ) ;
#140 = ORIENTED_EDGE ( 'NONE', *, *, #74, .T. ) ;
#141 = PRODUCT_DEFINITION_SHAPE ( 'NONE', 'NONE',  #163 ) ;
#142 = COORDINATED_UNIVERSAL_TIME_OFFSET ( 5, 0, .BEHIND. ) ;
#143 = ORIENTED_EDGE ( 'NONE', *, *, #195, .T. ) ;
#144 = LINE ( 'NONE', #138, #109 ) ;
#145 = ORIENTED_EDGE ( 'NONE', *, *, #42, .F. ) ;
#146 = SECURITY_CLASSIFICATION ( '', '', #71 ) ;
#147 = CARTESIAN_POINT ( 'NONE',  ( 9.999999999999998224, 13.49999999999999822, 0.5000000000000000000 ) ) ;
#148 = DIRECTION ( 'NONE',  ( 1.000000000000000000, 1.284980352575412946E-16, -0.0000000000000000000 ) ) ;
#149 = PERSON_AND_ORGANIZATION ( #70, #190 ) ;
#150 = AXIS2_PLACEMENT_3D ( 'NONE', #98, #73, #21 ) ;
#151 = DIRECTION ( 'NONE',  ( 1.284980352575412699E-16, -1.000000000000000000, 0.0000000000000000000 ) ) ;
#152 = PERSON_AND_ORGANIZATION ( #70, #190 ) ;
#153 = VERTEX_POINT ( 'NONE', #67 ) ;
#154 = DIRECTION ( 'NONE',  ( -1.000000000000000000, -1.284980352575412946E-16, 0.0000000000000000000 ) ) ;
#155 = PERSON_AND_ORGANIZATION_ROLE ( 'creator' ) ;
#156 = PERSON_AND_ORGANIZATION ( #70, #190 ) ;
#157 = AXIS2_PLACEMENT_3D ( 'NONE', #46, #148, #218 ) ;
#158 = DATE_AND_TIME ( #166, #40 ) ;
#159 = VERTEX_POINT ( 'NONE', #199 ) ;
#160 = ADVANCED_FACE ( 'NONE', ( #18 ), #66, .T. ) ;
#161 = EDGE_CURVE ( 'NONE', #197, #222, #50, .T. ) ;
#162 = COORDINATED_UNIVERSAL_TIME_OFFSET ( 5, 0, .BEHIND. ) ;
#163 = PRODUCT_DEFINITION ( 'UNKNOWN', '', #120, #1 ) ;
#164 = LINE ( 'NONE', #127, #117 ) ;
#165 = AXIS2_PLACEMENT_3D ( 'NONE', #110, #200, #31 ) ;
#166 = CALENDAR_DATE ( 2020, 31, 1 ) ;
#167 = PERSON_AND_ORGANIZATION_ROLE ( 'design_supplier' ) ;
#168 = ORIENTED_EDGE ( 'NONE', *, *, #13, .F. ) ;
#169 = CARTESIAN_POINT ( 'NONE',  ( -10.00000000000000178, 13.49999999999999822, -0.5000000000000000000 ) ) ;
#170 = EDGE_CURVE ( 'NONE', #159, #197, #61, .T. ) ;
#171 = APPLICATION_PROTOCOL_DEFINITION ( 'international standard', 'config_control_design', 1994, #2 ) ;
#172 = VECTOR ( 'NONE', #233, 1000.000000000000000 ) ;
#173 = FACE_OUTER_BOUND ( 'NONE', #108, .T. ) ;
#174 = ADVANCED_FACE ( 'NONE', ( #201 ), #130, .F. ) ;
#175 = ORIENTED_EDGE ( 'NONE', *, *, #195, .F. ) ;
#176 = CARTESIAN_POINT ( 'NONE',  ( -9.999999999999998224, -13.50000000000000178, 0.5000000000000000000 ) ) ;
#177 = VECTOR ( 'NONE', #60, 1000.000000000000000 ) ;
#178 = CARTESIAN_POINT ( 'NONE',  ( 10.00000000000000178, -13.50000000000000178, 0.5000000000000000000 ) ) ;
#179 = LINE ( 'NONE', #205, #135 ) ;
#180 = EDGE_LOOP ( 'NONE', ( #187, #11, #62, #140 ) ) ;
#181 = PLANE ( 'NONE',  #230 ) ;
#182 = APPROVAL ( #188, 'UNSPECIFIED' ) ;
#183 = CARTESIAN_POINT ( 'NONE',  ( -10.00000000000000178, 13.49999999999999822, -0.5000000000000000000 ) ) ;
#184 = DATE_AND_TIME ( #206, #47 ) ;
#185 = EDGE_CURVE ( 'NONE', #5, #191, #179, .T. ) ;
#186 = DIRECTION ( 'NONE',  ( 1.284980352575412946E-16, -1.000000000000000000, 0.0000000000000000000 ) ) ;
#187 = ORIENTED_EDGE ( 'NONE', *, *, #161, .T. ) ;
#188 = APPROVAL_STATUS ( 'not_yet_approved' ) ;
#189 = FACE_OUTER_BOUND ( 'NONE', #24, .T. ) ;
#190 = ORGANIZATION ( 'UNSPECIFIED', 'UNSPECIFIED', '' ) ;
#191 = VERTEX_POINT ( 'NONE', #208 ) ;
#192 = EDGE_CURVE ( 'NONE', #222, #44, #144, .T. ) ;
#193 = CC_DESIGN_PERSON_AND_ORGANIZATION_ASSIGNMENT ( #152, #225, ( #146 ) ) ;
#194 = CARTESIAN_POINT ( 'NONE',  ( 9.999999999999998224, 13.49999999999999822, 0.5000000000000000000 ) ) ;
#195 = EDGE_CURVE ( 'NONE', #44, #159, #93, .T. ) ;
#196 = DATE_AND_TIME ( #112, #43 ) ;
#197 = VERTEX_POINT ( 'NONE', #223 ) ;
#198 = CARTESIAN_POINT ( 'NONE',  ( -9.999999999999998224, -13.50000000000000178, 0.5000000000000000000 ) ) ;
#199 = CARTESIAN_POINT ( 'NONE',  ( 10.00000000000000178, -13.50000000000000178, -0.5000000000000000000 ) ) ;
#200 = DIRECTION ( 'NONE',  ( -0.0000000000000000000, 0.0000000000000000000, 1.000000000000000000 ) ) ;
#201 = FACE_OUTER_BOUND ( 'NONE', #180, .T. ) ;
#202 = DIRECTION ( 'NONE',  ( -1.000000000000000000, -0.0000000000000000000, -0.0000000000000000000 ) ) ;
#203 = EDGE_CURVE ( 'NONE', #191, #30, #10, .T. ) ;
#204 = DIRECTION ( 'NONE',  ( 0.0000000000000000000, -0.0000000000000000000, -1.000000000000000000 ) ) ;
#205 = CARTESIAN_POINT ( 'NONE',  ( -10.00000000000000178, 13.49999999999999822, 0.5000000000000000000 ) ) ;
#206 = CALENDAR_DATE ( 2020, 31, 1 ) ;
#207 = ORIENTED_EDGE ( 'NONE', *, *, #203, .T. ) ;
#208 = CARTESIAN_POINT ( 'NONE',  ( -10.00000000000000178, 13.49999999999999822, 0.5000000000000000000 ) ) ;
#209 = APPROVAL_ROLE ( '' ) ;
#210 = CC_DESIGN_DATE_AND_TIME_ASSIGNMENT ( #184, #7, ( #146 ) ) ;
#211 = APPROVAL_PERSON_ORGANIZATION ( #123, #182, #209 ) ;
#212 = APPROVAL ( #115, 'UNSPECIFIED' ) ;
#213 = VECTOR ( 'NONE', #216, 1000.000000000000000 ) ;
#214 = CARTESIAN_POINT ( 'NONE',  ( 0.0000000000000000000, 0.0000000000000000000, -0.5000000000000000000 ) ) ;
#215 = COORDINATED_UNIVERSAL_TIME_OFFSET ( 5, 0, .BEHIND. ) ;
#216 = DIRECTION ( 'NONE',  ( 1.000000000000000000, 0.0000000000000000000, 0.0000000000000000000 ) ) ;
#217 = CC_DESIGN_PERSON_AND_ORGANIZATION_ASSIGNMENT ( #156, #6, ( #163 ) ) ;
#218 = DIRECTION ( 'NONE',  ( -1.284980352575412946E-16, 1.000000000000000000, 0.0000000000000000000 ) ) ;
#219 = LINE ( 'NONE', #178, #172 ) ;
#220 =( LENGTH_UNIT ( ) NAMED_UNIT ( * ) SI_UNIT ( .MILLI., .METRE. ) );
#221 = DIRECTION ( 'NONE',  ( -1.284980352575412699E-16, 1.000000000000000000, -0.0000000000000000000 ) ) ;
#222 = VERTEX_POINT ( 'NONE', #169 ) ;
#223 = CARTESIAN_POINT ( 'NONE',  ( 9.999999999999998224, 13.49999999999999822, -0.5000000000000000000 ) ) ;
#224 = APPLICATION_PROTOCOL_DEFINITION ( 'international standard', 'config_control_design', 1994, #116 ) ;
#225 = PERSON_AND_ORGANIZATION_ROLE ( 'classification_officer' ) ;
#226 = ORIENTED_EDGE ( 'NONE', *, *, #161, .F. ) ;
#227 = ADVANCED_FACE ( 'NONE', ( #234 ), #97, .F. ) ;
#228 = SHAPE_DEFINITION_REPRESENTATION ( #141, #126 ) ;
#229 = ORIENTED_EDGE ( 'NONE', *, *, #74, .F. ) ;
#230 = AXIS2_PLACEMENT_3D ( 'NONE', #111, #129, #63 ) ;
#231 = APPROVAL_PERSON_ORGANIZATION ( #68, #212, #8 ) ;
#232 = AXIS2_PLACEMENT_3D ( 'NONE', #214, #106, #122 ) ;
#233 = DIRECTION ( 'NONE',  ( -0.0000000000000000000, -0.0000000000000000000, -1.000000000000000000 ) ) ;
#234 = FACE_OUTER_BOUND ( 'NONE', #78, .T. ) ;
#235 = ORIENTED_EDGE ( 'NONE', *, *, #22, .T. ) ;
#236 = CARTESIAN_POINT ( 'NONE',  ( -9.999999999999998224, -13.50000000000000178, -0.5000000000000000000 ) ) ;
#237 = DATE_AND_TIME ( #83, #9 ) ;
ENDSEC;
END-ISO-10303-21;
