ISO-10303-21;
HEADER;
FILE_DESCRIPTION (( 'STEP AP203' ),
    '1' );
FILE_NAME ('Web Model 46604_45316.step',
    '2017-04-10T15:57:12',
    ( '' ),
    ( '' ),
    'SwSTEP 2.0',
    'SolidWorks 2016',
    '' );
FILE_SCHEMA (( 'CONFIG_CONTROL_DESIGN' ));
ENDSEC;

DATA;
#1 = FACE_OUTER_BOUND ( 'NONE', #159, .T. ) ;
#2 = CC_DESIGN_PERSON_AND_ORGANIZATION_ASSIGNMENT ( #77, #49, ( #221 ) ) ;
#3 = ADVANCED_FACE ( 'NONE', ( #130 ), #17, .T. ) ;
#4 = APPROVAL_PERSON_ORGANIZATION ( #27, #181, #161 ) ;
#5 = PERSON_AND_ORGANIZATION ( #62, #116 ) ;
#6 = VERTEX_POINT ( 'NONE', #106 ) ;
#7 = DIRECTION ( 'NONE',  ( 1.000000000000000000, 0.0000000000000000000, 0.0000000000000000000 ) ) ;
#8 = DESIGN_CONTEXT ( 'detailed design', #73, 'design' ) ;
#9 = AXIS2_PLACEMENT_3D ( 'NONE', #74, #75, #182 ) ;
#10 = ORIENTED_EDGE ( 'NONE', *, *, #233, .T. ) ;
#11 = DATE_TIME_ROLE ( 'classification_date' ) ;
#12 =( NAMED_UNIT ( * ) PLANE_ANGLE_UNIT ( ) SI_UNIT ( $, .RADIAN. ) );
#13 = DIRECTION ( 'NONE',  ( -0.0000000000000000000, -1.000000000000000000, -0.0000000000000000000 ) ) ;
#14 = CC_DESIGN_DATE_AND_TIME_ASSIGNMENT ( #41, #11, ( #221 ) ) ;
#15 = CARTESIAN_POINT ( 'NONE',  ( -6.250000000000001800, -8.750000000000001800, 0.5000000000000000000 ) ) ;
#16 = VERTEX_POINT ( 'NONE', #79 ) ;
#17 = PLANE ( 'NONE',  #200 ) ;
#18 = CARTESIAN_POINT ( 'NONE',  ( -6.250000000000001800, -8.750000000000001800, 0.5000000000000000000 ) ) ;
#19 = DIRECTION ( 'NONE',  ( 0.0000000000000000000, 1.000000000000000000, 0.0000000000000000000 ) ) ;
#20 = CARTESIAN_POINT ( 'NONE',  ( 6.249999999999998200, -8.750000000000001800, 0.5000000000000000000 ) ) ;
#21 = ADVANCED_FACE ( 'NONE', ( #47 ), #117, .F. ) ;
#22 = PERSON_AND_ORGANIZATION ( #62, #116 ) ;
#23 = PERSON_AND_ORGANIZATION ( #62, #116 ) ;
#24 = APPROVAL ( #179, 'UNSPECIFIED' ) ;
#25 = VERTEX_POINT ( 'NONE', #113 ) ;
#26 = VECTOR ( 'NONE', #237, 1000.000000000000000 ) ;
#27 = PERSON_AND_ORGANIZATION ( #62, #116 ) ;
#28 = VERTEX_POINT ( 'NONE', #235 ) ;
#29 = APPROVAL_STATUS ( 'not_yet_approved' ) ;
#30 =( NAMED_UNIT ( * ) SI_UNIT ( $, .STERADIAN. ) SOLID_ANGLE_UNIT ( ) );
#31 = DATE_AND_TIME ( #217, #219 ) ;
#32 = LOCAL_TIME ( 11, 57, 12.00000000000000000, #187 ) ;
#33 = APPLICATION_PROTOCOL_DEFINITION ( 'international standard', 'config_control_design', 1994, #180 ) ;
#34 = AXIS2_PLACEMENT_3D ( 'NONE', #81, #236, #98 ) ;
#35 = DATE_AND_TIME ( #95, #169 ) ;
#36 = DIRECTION ( 'NONE',  ( 0.0000000000000000000, 0.0000000000000000000, 1.000000000000000000 ) ) ;
#37 = DIRECTION ( 'NONE',  ( -1.000000000000000000, 0.0000000000000000000, -0.0000000000000000000 ) ) ;
#38 = ORIENTED_EDGE ( 'NONE', *, *, #56, .F. ) ;
#39 = CC_DESIGN_APPROVAL ( #24, ( #221 ) ) ;
#40 = ORIENTED_EDGE ( 'NONE', *, *, #123, .T. ) ;
#41 = DATE_AND_TIME ( #88, #32 ) ;
#42 = CALENDAR_DATE ( 2017, 10, 4 ) ;
#43 = ORIENTED_EDGE ( 'NONE', *, *, #134, .T. ) ;
#44 = APPROVAL_ROLE ( '' ) ;
#45 = VERTEX_POINT ( 'NONE', #145 ) ;
#46 = APPROVAL_DATE_TIME ( #70, #24 ) ;
#47 = FACE_OUTER_BOUND ( 'NONE', #107, .T. ) ;
#48 =( GEOMETRIC_REPRESENTATION_CONTEXT ( 3 ) GLOBAL_UNCERTAINTY_ASSIGNED_CONTEXT ( ( #91 ) ) GLOBAL_UNIT_ASSIGNED_CONTEXT ( ( #128, #12, #30 ) ) REPRESENTATION_CONTEXT ( 'NONE', 'WORKASPACE' ) );
#49 = PERSON_AND_ORGANIZATION_ROLE ( 'classification_officer' ) ;
#50 = PERSON_AND_ORGANIZATION ( #62, #116 ) ;
#51 = VECTOR ( 'NONE', #208, 1000.000000000000000 ) ;
#52 = DIRECTION ( 'NONE',  ( -1.000000000000000000, -0.0000000000000000000, -0.0000000000000000000 ) ) ;
#53 = CC_DESIGN_SECURITY_CLASSIFICATION ( #221, ( #168 ) ) ;
#54 = CARTESIAN_POINT ( 'NONE',  ( -6.250000000000001800, 8.749999999999998200, 0.5000000000000000000 ) ) ;
#55 = CARTESIAN_POINT ( 'NONE',  ( 6.249999999999998200, 8.749999999999998200, 0.5000000000000000000 ) ) ;
#56 = EDGE_CURVE ( 'NONE', #45, #6, #84, .T. ) ;
#57 = DIRECTION ( 'NONE',  ( -0.0000000000000000000, -1.000000000000000000, -0.0000000000000000000 ) ) ;
#58 = DIRECTION ( 'NONE',  ( 0.0000000000000000000, 0.0000000000000000000, -1.000000000000000000 ) ) ;
#59 = ORIENTED_EDGE ( 'NONE', *, *, #147, .F. ) ;
#60 = DIRECTION ( 'NONE',  ( -1.000000000000000000, 0.0000000000000000000, -0.0000000000000000000 ) ) ;
#61 = CARTESIAN_POINT ( 'NONE',  ( -6.250000000000001800, -8.750000000000001800, 0.5000000000000000000 ) ) ;
#62 = PERSON ( 'UNSPECIFIED', 'UNSPECIFIED', 'UNSPECIFIED', ('UNSPECIFIED'), ('UNSPECIFIED'), ('UNSPECIFIED') ) ;
#63 = COORDINATED_UNIVERSAL_TIME_OFFSET ( 5, 0, .BEHIND. ) ;
#64 = AXIS2_PLACEMENT_3D ( 'NONE', #54, #177, #111 ) ;
#65 = ORIENTED_EDGE ( 'NONE', *, *, #233, .F. ) ;
#66 = LINE ( 'NONE', #15, #121 ) ;
#67 = PRODUCT_RELATED_PRODUCT_CATEGORY ( 'detail', '', ( #108 ) ) ;
#68 = CALENDAR_DATE ( 2017, 10, 4 ) ;
#69 = DIRECTION ( 'NONE',  ( -0.0000000000000000000, -0.0000000000000000000, -1.000000000000000000 ) ) ;
#70 = DATE_AND_TIME ( #68, #174 ) ;
#71 = EDGE_CURVE ( 'NONE', #16, #28, #165, .T. ) ;
#72 = VECTOR ( 'NONE', #96, 1000.000000000000000 ) ;
#73 = APPLICATION_CONTEXT ( 'configuration controlled 3d designs of mechanical parts and assemblies' ) ;
#74 = CARTESIAN_POINT ( 'NONE',  ( -6.250000000000001800, -8.750000000000001800, 0.5000000000000000000 ) ) ;
#75 = DIRECTION ( 'NONE',  ( 0.0000000000000000000, 1.000000000000000000, 0.0000000000000000000 ) ) ;
#76 = VECTOR ( 'NONE', #150, 1000.000000000000000 ) ;
#77 = PERSON_AND_ORGANIZATION ( #62, #116 ) ;
#78 = PLANE ( 'NONE',  #9 ) ;
#79 = CARTESIAN_POINT ( 'NONE',  ( 6.249999999999998200, -8.750000000000001800, 0.5000000000000000000 ) ) ;
#80 = ORIENTED_EDGE ( 'NONE', *, *, #158, .F. ) ;
#81 = CARTESIAN_POINT ( 'NONE',  ( -6.250000000000001800, -8.750000000000001800, 0.5000000000000000000 ) ) ;
#82 = ADVANCED_FACE ( 'NONE', ( #191 ), #197, .F. ) ;
#83 = ORIENTED_EDGE ( 'NONE', *, *, #123, .F. ) ;
#84 = LINE ( 'NONE', #185, #86 ) ;
#85 = EDGE_CURVE ( 'NONE', #6, #125, #160, .T. ) ;
#86 = VECTOR ( 'NONE', #186, 1000.000000000000000 ) ;
#87 = CARTESIAN_POINT ( 'NONE',  ( -6.250000000000001800, 8.749999999999998200, 0.5000000000000000000 ) ) ;
#88 = CALENDAR_DATE ( 2017, 10, 4 ) ;
#89 = ORIENTED_EDGE ( 'NONE', *, *, #71, .T. ) ;
#90 = CLOSED_SHELL ( 'NONE', ( #82, #188, #170, #103, #21, #3 ) ) ;
#91 = UNCERTAINTY_MEASURE_WITH_UNIT (LENGTH_MEASURE( 1.000000000000000100E-005 ), #128, 'distance_accuracy_value', 'NONE');
#92 = APPROVAL_STATUS ( 'not_yet_approved' ) ;
#93 = EDGE_LOOP ( 'NONE', ( #135, #115, #59, #89 ) ) ;
#94 = DIRECTION ( 'NONE',  ( 1.000000000000000000, 0.0000000000000000000, 0.0000000000000000000 ) ) ;
#95 = CALENDAR_DATE ( 2017, 10, 4 ) ;
#96 = DIRECTION ( 'NONE',  ( 0.0000000000000000000, 1.000000000000000000, 0.0000000000000000000 ) ) ;
#97 = PLANE ( 'NONE',  #34 ) ;
#98 = DIRECTION ( 'NONE',  ( 0.0000000000000000000, 0.0000000000000000000, -1.000000000000000000 ) ) ;
#99 = EDGE_CURVE ( 'NONE', #28, #155, #171, .T. ) ;
#100 = LOCAL_TIME ( 11, 57, 12.00000000000000000, #230 ) ;
#101 = EDGE_LOOP ( 'NONE', ( #112, #83, #220, #232 ) ) ;
#102 = VECTOR ( 'NONE', #69, 1000.000000000000000 ) ;
#103 = ADVANCED_FACE ( 'NONE', ( #149 ), #78, .F. ) ;
#104 = PERSON_AND_ORGANIZATION ( #62, #116 ) ;
#105 = LINE ( 'NONE', #234, #201 ) ;
#106 = CARTESIAN_POINT ( 'NONE',  ( -6.250000000000001800, 8.749999999999998200, 0.5000000000000000000 ) ) ;
#107 = EDGE_LOOP ( 'NONE', ( #213, #211, #178, #222 ) ) ;
#108 = PRODUCT ( 'Web Model 46604_45316', 'Web Model 46604_45316', '', ( #206 ) ) ;
#109 = EDGE_CURVE ( 'NONE', #155, #25, #105, .T. ) ;
#110 = ORIENTED_EDGE ( 'NONE', *, *, #172, .T. ) ;
#111 = DIRECTION ( 'NONE',  ( 0.0000000000000000000, -0.0000000000000000000, -1.000000000000000000 ) ) ;
#112 = ORIENTED_EDGE ( 'NONE', *, *, #99, .F. ) ;
#113 = CARTESIAN_POINT ( 'NONE',  ( -6.250000000000001800, 8.749999999999998200, -0.5000000000000000000 ) ) ;
#114 = AXIS2_PLACEMENT_3D ( 'NONE', #131, #194, #94 ) ;
#115 = ORIENTED_EDGE ( 'NONE', *, *, #134, .F. ) ;
#116 = ORGANIZATION ( 'UNSPECIFIED', 'UNSPECIFIED', '' ) ;
#117 = PLANE ( 'NONE',  #225 ) ;
#118 = SHAPE_DEFINITION_REPRESENTATION ( #224, #173 ) ;
#119 = VECTOR ( 'NONE', #19, 1000.000000000000000 ) ;
#120 = FACE_OUTER_BOUND ( 'NONE', #139, .T. ) ;
#121 = VECTOR ( 'NONE', #7, 1000.000000000000000 ) ;
#122 = PERSON_AND_ORGANIZATION_ROLE ( 'creator' ) ;
#123 = EDGE_CURVE ( 'NONE', #176, #28, #142, .T. ) ;
#124 = VECTOR ( 'NONE', #57, 1000.000000000000000 ) ;
#125 = VERTEX_POINT ( 'NONE', #143 ) ;
#126 = CC_DESIGN_PERSON_AND_ORGANIZATION_ASSIGNMENT ( #5, #229, ( #108 ) ) ;
#127 = PERSON_AND_ORGANIZATION_ROLE ( 'creator' ) ;
#128 =( LENGTH_UNIT ( ) NAMED_UNIT ( * ) SI_UNIT ( .MILLI., .METRE. ) );
#129 = CARTESIAN_POINT ( 'NONE',  ( 6.249999999999998200, -8.750000000000001800, 0.5000000000000000000 ) ) ;
#130 = FACE_OUTER_BOUND ( 'NONE', #101, .T. ) ;
#131 = CARTESIAN_POINT ( 'NONE',  ( 0.0000000000000000000, 0.0000000000000000000, 0.0000000000000000000 ) ) ;
#132 = CC_DESIGN_APPROVAL ( #152, ( #137 ) ) ;
#133 = PERSON_AND_ORGANIZATION ( #62, #116 ) ;
#134 = EDGE_CURVE ( 'NONE', #45, #155, #210, .T. ) ;
#135 = ORIENTED_EDGE ( 'NONE', *, *, #99, .T. ) ;
#136 = COORDINATED_UNIVERSAL_TIME_OFFSET ( 5, 0, .BEHIND. ) ;
#137 = PRODUCT_DEFINITION ( 'UNKNOWN', '', #168, #8 ) ;
#138 = EDGE_CURVE ( 'NONE', #25, #176, #140, .T. ) ;
#139 = EDGE_LOOP ( 'NONE', ( #154, #65, #227, #110 ) ) ;
#140 = LINE ( 'NONE', #146, #192 ) ;
#141 = APPROVAL_ROLE ( '' ) ;
#142 = LINE ( 'NONE', #162, #51 ) ;
#143 = CARTESIAN_POINT ( 'NONE',  ( -6.250000000000001800, -8.750000000000001800, 0.5000000000000000000 ) ) ;
#144 = CC_DESIGN_PERSON_AND_ORGANIZATION_ASSIGNMENT ( #104, #122, ( #137 ) ) ;
#145 = CARTESIAN_POINT ( 'NONE',  ( 6.249999999999998200, 8.749999999999998200, 0.5000000000000000000 ) ) ;
#146 = CARTESIAN_POINT ( 'NONE',  ( -6.250000000000001800, -8.750000000000001800, -0.5000000000000000000 ) ) ;
#147 = EDGE_CURVE ( 'NONE', #16, #45, #209, .T. ) ;
#148 = DIRECTION ( 'NONE',  ( -1.000000000000000000, 0.0000000000000000000, 0.0000000000000000000 ) ) ;
#149 = FACE_OUTER_BOUND ( 'NONE', #223, .T. ) ;
#150 = DIRECTION ( 'NONE',  ( -0.0000000000000000000, -0.0000000000000000000, -1.000000000000000000 ) ) ;
#151 = PLANE ( 'NONE',  #64 ) ;
#152 = APPROVAL ( #92, 'UNSPECIFIED' ) ;
#153 = ORIENTED_EDGE ( 'NONE', *, *, #71, .F. ) ;
#154 = ORIENTED_EDGE ( 'NONE', *, *, #138, .T. ) ;
#155 = VERTEX_POINT ( 'NONE', #228 ) ;
#156 = CC_DESIGN_DATE_AND_TIME_ASSIGNMENT ( #35, #157, ( #137 ) ) ;
#157 = DATE_TIME_ROLE ( 'creation_date' ) ;
#158 = EDGE_CURVE ( 'NONE', #125, #16, #66, .T. ) ;
#159 = EDGE_LOOP ( 'NONE', ( #195, #231, #38, #43 ) ) ;
#160 = LINE ( 'NONE', #61, #124 ) ;
#161 = APPROVAL_ROLE ( '' ) ;
#162 = CARTESIAN_POINT ( 'NONE',  ( -6.250000000000001800, -8.750000000000001800, -0.5000000000000000000 ) ) ;
#163 = LINE ( 'NONE', #18, #76 ) ;
#164 = CARTESIAN_POINT ( 'NONE',  ( -6.250000000000001800, -8.750000000000001800, -0.5000000000000000000 ) ) ;
#165 = LINE ( 'NONE', #20, #26 ) ;
#166 = APPROVAL_DATE_TIME ( #31, #181 ) ;
#167 = DIRECTION ( 'NONE',  ( 0.0000000000000000000, 0.0000000000000000000, -1.000000000000000000 ) ) ;
#168 = PRODUCT_DEFINITION_FORMATION_WITH_SPECIFIED_SOURCE ( 'ANY', '', #108, .NOT_KNOWN. ) ;
#169 = LOCAL_TIME ( 11, 57, 12.00000000000000000, #189 ) ;
#170 = ADVANCED_FACE ( 'NONE', ( #120 ), #97, .F. ) ;
#171 = LINE ( 'NONE', #212, #119 ) ;
#172 = EDGE_CURVE ( 'NONE', #6, #25, #203, .T. ) ;
#173 = ADVANCED_BREP_SHAPE_REPRESENTATION ( 'Web Model 46604_45316', ( #226, #114 ), #48 ) ;
#174 = LOCAL_TIME ( 11, 57, 12.00000000000000000, #63 ) ;
#175 = VECTOR ( 'NONE', #184, 1000.000000000000000 ) ;
#176 = VERTEX_POINT ( 'NONE', #164 ) ;
#177 = DIRECTION ( 'NONE',  ( 0.0000000000000000000, -1.000000000000000000, 0.0000000000000000000 ) ) ;
#178 = ORIENTED_EDGE ( 'NONE', *, *, #85, .T. ) ;
#179 = APPROVAL_STATUS ( 'not_yet_approved' ) ;
#180 = APPLICATION_CONTEXT ( 'configuration controlled 3d designs of mechanical parts and assemblies' ) ;
#181 = APPROVAL ( #29, 'UNSPECIFIED' ) ;
#182 = DIRECTION ( 'NONE',  ( 0.0000000000000000000, -0.0000000000000000000, 1.000000000000000000 ) ) ;
#183 = APPROVAL_DATE_TIME ( #204, #152 ) ;
#184 = DIRECTION ( 'NONE',  ( -0.0000000000000000000, -0.0000000000000000000, -1.000000000000000000 ) ) ;
#185 = CARTESIAN_POINT ( 'NONE',  ( -6.250000000000001800, 8.749999999999998200, 0.5000000000000000000 ) ) ;
#186 = DIRECTION ( 'NONE',  ( -1.000000000000000000, -0.0000000000000000000, -0.0000000000000000000 ) ) ;
#187 = COORDINATED_UNIVERSAL_TIME_OFFSET ( 5, 0, .BEHIND. ) ;
#188 = ADVANCED_FACE ( 'NONE', ( #1 ), #151, .F. ) ;
#189 = COORDINATED_UNIVERSAL_TIME_OFFSET ( 5, 0, .BEHIND. ) ;
#190 = CC_DESIGN_APPROVAL ( #181, ( #168 ) ) ;
#191 = FACE_OUTER_BOUND ( 'NONE', #93, .T. ) ;
#192 = VECTOR ( 'NONE', #13, 1000.000000000000000 ) ;
#193 = APPLICATION_PROTOCOL_DEFINITION ( 'international standard', 'config_control_design', 1994, #73 ) ;
#194 = DIRECTION ( 'NONE',  ( 0.0000000000000000000, 0.0000000000000000000, 1.000000000000000000 ) ) ;
#195 = ORIENTED_EDGE ( 'NONE', *, *, #109, .T. ) ;
#196 = CARTESIAN_POINT ( 'NONE',  ( 6.249999999999998200, -8.750000000000001800, 0.5000000000000000000 ) ) ;
#197 = PLANE ( 'NONE',  #216 ) ;
#198 = CC_DESIGN_PERSON_AND_ORGANIZATION_ASSIGNMENT ( #22, #127, ( #168 ) ) ;
#199 = APPROVAL_PERSON_ORGANIZATION ( #23, #24, #141 ) ;
#200 = AXIS2_PLACEMENT_3D ( 'NONE', #218, #167, #60 ) ;
#201 = VECTOR ( 'NONE', #52, 1000.000000000000000 ) ;
#202 = SECURITY_CLASSIFICATION_LEVEL ( 'unclassified' ) ;
#203 = LINE ( 'NONE', #87, #102 ) ;
#204 = DATE_AND_TIME ( #42, #100 ) ;
#205 = PERSON_AND_ORGANIZATION_ROLE ( 'design_supplier' ) ;
#206 = MECHANICAL_CONTEXT ( 'NONE', #180, 'mechanical' ) ;
#207 = CC_DESIGN_PERSON_AND_ORGANIZATION_ASSIGNMENT ( #133, #205, ( #168 ) ) ;
#208 = DIRECTION ( 'NONE',  ( 1.000000000000000000, 0.0000000000000000000, 0.0000000000000000000 ) ) ;
#209 = LINE ( 'NONE', #129, #72 ) ;
#210 = LINE ( 'NONE', #55, #175 ) ;
#211 = ORIENTED_EDGE ( 'NONE', *, *, #56, .T. ) ;
#212 = CARTESIAN_POINT ( 'NONE',  ( 6.249999999999998200, -8.750000000000001800, -0.5000000000000000000 ) ) ;
#213 = ORIENTED_EDGE ( 'NONE', *, *, #147, .T. ) ;
#214 = CARTESIAN_POINT ( 'NONE',  ( 0.0000000000000000000, 0.0000000000000000000, 0.5000000000000000000 ) ) ;
#215 = APPROVAL_PERSON_ORGANIZATION ( #50, #152, #44 ) ;
#216 = AXIS2_PLACEMENT_3D ( 'NONE', #196, #148, #36 ) ;
#217 = CALENDAR_DATE ( 2017, 10, 4 ) ;
#218 = CARTESIAN_POINT ( 'NONE',  ( 0.0000000000000000000, 0.0000000000000000000, -0.5000000000000000000 ) ) ;
#219 = LOCAL_TIME ( 11, 57, 12.00000000000000000, #136 ) ;
#220 = ORIENTED_EDGE ( 'NONE', *, *, #138, .F. ) ;
#221 = SECURITY_CLASSIFICATION ( '', '', #202 ) ;
#222 = ORIENTED_EDGE ( 'NONE', *, *, #158, .T. ) ;
#223 = EDGE_LOOP ( 'NONE', ( #40, #153, #80, #10 ) ) ;
#224 = PRODUCT_DEFINITION_SHAPE ( 'NONE', 'NONE',  #137 ) ;
#225 = AXIS2_PLACEMENT_3D ( 'NONE', #214, #58, #37 ) ;
#226 = MANIFOLD_SOLID_BREP ( 'Boss-Extrude1', #90 ) ;
#227 = ORIENTED_EDGE ( 'NONE', *, *, #85, .F. ) ;
#228 = CARTESIAN_POINT ( 'NONE',  ( 6.249999999999998200, 8.749999999999998200, -0.5000000000000000000 ) ) ;
#229 = PERSON_AND_ORGANIZATION_ROLE ( 'design_owner' ) ;
#230 = COORDINATED_UNIVERSAL_TIME_OFFSET ( 5, 0, .BEHIND. ) ;
#231 = ORIENTED_EDGE ( 'NONE', *, *, #172, .F. ) ;
#232 = ORIENTED_EDGE ( 'NONE', *, *, #109, .F. ) ;
#233 = EDGE_CURVE ( 'NONE', #125, #176, #163, .T. ) ;
#234 = CARTESIAN_POINT ( 'NONE',  ( -6.250000000000001800, 8.749999999999998200, -0.5000000000000000000 ) ) ;
#235 = CARTESIAN_POINT ( 'NONE',  ( 6.249999999999998200, -8.750000000000001800, -0.5000000000000000000 ) ) ;
#236 = DIRECTION ( 'NONE',  ( 1.000000000000000000, 0.0000000000000000000, 0.0000000000000000000 ) ) ;
#237 = DIRECTION ( 'NONE',  ( -0.0000000000000000000, -0.0000000000000000000, -1.000000000000000000 ) ) ;
ENDSEC;
END-ISO-10303-21;
