ISO-10303-21;
HEADER;
FILE_DESCRIPTION (( 'STEP AP203' ),
    '1' );
FILE_NAME ('TTN049372-E0W.STEP',
    '2016-07-25T14:35:58',
    ( 'admin' ),
    ( '' ),
    'SwSTEP 2.0',
    'SolidWorks 2016',
    '' );
FILE_SCHEMA (( 'CONFIG_CONTROL_DESIGN' ));
ENDSEC;

DATA;
#1 = EDGE_CURVE ( 'NONE', #133, #249, #195, .T. ) ;
#2 = APPROVAL_DATE_TIME ( #98, #151 ) ;
#3 =( NAMED_UNIT ( * ) PLANE_ANGLE_UNIT ( ) SI_UNIT ( $, .RADIAN. ) );
#4 = ADVANCED_FACE ( 'NONE', ( #125 ), #89, .T. ) ;
#5 = CC_DESIGN_DATE_AND_TIME_ASSIGNMENT ( #126, #228, ( #243 ) ) ;
#6 = ORIENTED_EDGE ( 'NONE', *, *, #97, .T. ) ;
#7 = ORIENTED_EDGE ( 'NONE', *, *, #130, .F. ) ;
#8 = ADVANCED_FACE ( 'NONE', ( #218 ), #92, .T. ) ;
#9 = AXIS2_PLACEMENT_3D ( 'NONE', #114, #66, #93 ) ;
#10 = LINE ( 'NONE', #117, #69 ) ;
#11 = VERTEX_POINT ( 'NONE', #203 ) ;
#12 = ORIENTED_EDGE ( 'NONE', *, *, #1, .T. ) ;
#13 = CARTESIAN_POINT ( 'NONE',  ( 0.0000000000000000000, 1.239070208395082800E-017, -0.07874015748031496000 ) ) ;
#14 = DIRECTION ( 'NONE',  ( 0.0000000000000000000, -1.000000000000000000, -3.073328992872296400E-016 ) ) ;
#15 = MECHANICAL_CONTEXT ( 'NONE', #215, 'mechanical' ) ;
#16 = PRODUCT_DEFINITION_FORMATION_WITH_SPECIFIED_SOURCE ( 'ANY', '', #139, .NOT_KNOWN. ) ;
#17 = FACE_OUTER_BOUND ( 'NONE', #257, .T. ) ;
#18 = APPLICATION_CONTEXT ( 'configuration controlled 3d designs of mechanical parts and assemblies' ) ;
#19 = APPROVAL_STATUS ( 'not_yet_approved' ) ;
#20 = VECTOR ( 'NONE', #37, 39.37007874015748100 ) ;
#21 = ORIENTED_EDGE ( 'NONE', *, *, #246, .T. ) ;
#22 = CARTESIAN_POINT ( 'NONE',  ( 0.0000000000000000000, 1.239070208395084800E-017, -0.07874015748031502900 ) ) ;
#23 = CARTESIAN_POINT ( 'NONE',  ( 0.0000000000000000000, 1.239070208395084800E-017, -0.07874015748031502900 ) ) ;
#24 = DIRECTION ( 'NONE',  ( 0.0000000000000000000, 0.0000000000000000000, 1.000000000000000000 ) ) ;
#25 = CARTESIAN_POINT ( 'NONE',  ( 0.0000000000000000000, -2.693437471413404800E-017, 0.04970953306828956900 ) ) ;
#26 = AXIS2_PLACEMENT_3D ( 'NONE', #229, #96, #255 ) ;
#27 = CARTESIAN_POINT ( 'NONE',  ( 0.0000000000000000000, -2.693437471413404800E-017, 0.04970953306828956900 ) ) ;
#28 = CIRCLE ( 'NONE', #267, 5.918897637795275600 ) ;
#29 = LOCAL_TIME ( 10, 35, 58.00000000000000000, #247 ) ;
#30 = ORIENTED_EDGE ( 'NONE', *, *, #268, .F. ) ;
#31 = CLOSED_SHELL ( 'NONE', ( #79, #290, #189, #216, #4, #8, #100, #59, #60 ) ) ;
#32 = LOCAL_TIME ( 10, 35, 58.00000000000000000, #157 ) ;
#33 = FACE_OUTER_BOUND ( 'NONE', #146, .T. ) ;
#34 = APPROVAL ( #94, 'UNSPECIFIED' ) ;
#35 = VERTEX_POINT ( 'NONE', #63 ) ;
#36 = CARTESIAN_POINT ( 'NONE',  ( 0.0000000000000000000, 6.890098189951021000E-016, -5.840157480314960700 ) ) ;
#37 = DIRECTION ( 'NONE',  ( 8.285732588949610600E-017, -0.6765814106335360500, -0.7363678393202235400 ) ) ;
#38 = AXIS2_PLACEMENT_3D ( 'NONE', #209, #251, #163 ) ;
#39 = DIRECTION ( 'NONE',  ( -1.000000000000000000, 0.0000000000000000000, 0.0000000000000000000 ) ) ;
#40 = FACE_OUTER_BOUND ( 'NONE', #240, .T. ) ;
#41 = COORDINATED_UNIVERSAL_TIME_OFFSET ( 5, 0, .BEHIND. ) ;
#42 = CARTESIAN_POINT ( 'NONE',  ( 6.027213838818947700E-017, -0.4921593591732198500, 0.05824301574129416700 ) ) ;
#43 = ORIENTED_EDGE ( 'NONE', *, *, #220, .F. ) ;
#44 = CARTESIAN_POINT ( 'NONE',  ( 0.0000000000000000000, 0.4921593591732176300, 0.05824301574129432000 ) ) ;
#45 = APPROVAL_STATUS ( 'not_yet_approved' ) ;
#46 = EDGE_CURVE ( 'NONE', #249, #295, #150, .T. ) ;
#47 = DIRECTION ( 'NONE',  ( 0.0000000000000000000, 1.000000000000000000, 3.122502256758251800E-016 ) ) ;
#48 = DIRECTION ( 'NONE',  ( 1.000000000000000000, 1.224646799147353200E-016, 3.749275628560213600E-032 ) ) ;
#49 = LOCAL_TIME ( 10, 35, 58.00000000000000000, #271 ) ;
#50 = DIRECTION ( 'NONE',  ( 0.0000000000000000000, -3.061515884555912600E-016, 1.000000000000000000 ) ) ;
#51 = CONICAL_SURFACE ( 'NONE', #242, 0.5000000000000000000, 0.7431101716226155000 ) ;
#52 = CC_DESIGN_APPROVAL ( #34, ( #16 ) ) ;
#53 = PERSON_AND_ORGANIZATION ( #283, #239 ) ;
#54 = DATE_AND_TIME ( #118, #173 ) ;
#55 = EDGE_LOOP ( 'NONE', ( #211, #120, #7, #256 ) ) ;
#56 = PERSON_AND_ORGANIZATION ( #283, #239 ) ;
#57 = AXIS2_PLACEMENT_3D ( 'NONE', #22, #182, #47 ) ;
#58 = LINE ( 'NONE', #160, #106 ) ;
#59 = ADVANCED_FACE ( 'NONE', ( #101 ), #291, .T. ) ;
#60 = ADVANCED_FACE ( 'NONE', ( #40 ), #51, .T. ) ;
#61 = ORIENTED_EDGE ( 'NONE', *, *, #300, .T. ) ;
#62 = DIRECTION ( 'NONE',  ( 1.000000000000000000, 0.0000000000000000000, -0.0000000000000000000 ) ) ;
#63 = CARTESIAN_POINT ( 'NONE',  ( 6.075019554825453600E-017, 0.4921259842519686800, -0.07874015748031487600 ) ) ;
#64 = ORIENTED_EDGE ( 'NONE', *, *, #111, .T. ) ;
#65 = CC_DESIGN_PERSON_AND_ORGANIZATION_ASSIGNMENT ( #78, #116, ( #16 ) ) ;
#66 = DIRECTION ( 'NONE',  ( -0.0000000000000000000, 3.061515884555943100E-016, -1.000000000000000000 ) ) ;
#67 = CARTESIAN_POINT ( 'NONE',  ( 6.123233995736766000E-017, -0.5000000000000000000, -0.07086614173228381100 ) ) ;
#68 = PERSON_AND_ORGANIZATION_ROLE ( 'creator' ) ;
#69 = VECTOR ( 'NONE', #227, 39.37007874015748100 ) ;
#70 = CARTESIAN_POINT ( 'NONE',  ( 0.0000000000000000000, -0.4921259842519686800, -0.07874015748031518200 ) ) ;
#71 = ORIENTED_EDGE ( 'NONE', *, *, #81, .T. ) ;
#72 = EDGE_LOOP ( 'NONE', ( #61, #64, #266, #176 ) ) ;
#73 = CIRCLE ( 'NONE', #123, 0.4921593591731940300 ) ;
#74 = DIRECTION ( 'NONE',  ( 0.0000000000000000000, -3.061515884555943100E-016, 1.000000000000000000 ) ) ;
#75 = AXIS2_PLACEMENT_3D ( 'NONE', #119, #284, #142 ) ;
#76 = ORIENTED_EDGE ( 'NONE', *, *, #204, .F. ) ;
#77 = DIRECTION ( 'NONE',  ( 1.000000000000000000, 0.0000000000000000000, 0.0000000000000000000 ) ) ;
#78 = PERSON_AND_ORGANIZATION ( #283, #239 ) ;
#79 = ADVANCED_FACE ( 'NONE', ( #17 ), #288, .T. ) ;
#80 = DIRECTION ( 'NONE',  ( 0.0000000000000000000, 0.6765814106335363800, -0.7363678393202229800 ) ) ;
#81 = EDGE_CURVE ( 'NONE', #206, #295, #221, .T. ) ;
#82 = EDGE_LOOP ( 'NONE', ( #84, #245 ) ) ;
#83 = ORIENTED_EDGE ( 'NONE', *, *, #268, .T. ) ;
#84 = ORIENTED_EDGE ( 'NONE', *, *, #204, .T. ) ;
#85 = CIRCLE ( 'NONE', #26, 0.4921593591731940300 ) ;
#86 = CC_DESIGN_PERSON_AND_ORGANIZATION_ASSIGNMENT ( #56, #281, ( #16 ) ) ;
#87 = CYLINDRICAL_SURFACE ( 'NONE', #193, 0.5000000000000000000 ) ;
#88 = ORIENTED_EDGE ( 'NONE', *, *, #111, .F. ) ;
#89 = PLANE ( 'NONE',  #244 ) ;
#90 = DIRECTION ( 'NONE',  ( -0.0000000000000000000, 3.061515884555943100E-016, -1.000000000000000000 ) ) ;
#91 = AXIS2_PLACEMENT_3D ( 'NONE', #185, #48, #212 ) ;
#92 = SPHERICAL_SURFACE ( 'NONE', #238, 5.918897637795275600 ) ;
#93 = DIRECTION ( 'NONE',  ( 0.0000000000000000000, 1.000000000000000000, 3.073328992872296400E-016 ) ) ;
#94 = APPROVAL_STATUS ( 'not_yet_approved' ) ;
#95 = ORIENTED_EDGE ( 'NONE', *, *, #235, .F. ) ;
#96 = DIRECTION ( 'NONE',  ( 0.0000000000000000000, -3.061515884555912600E-016, 1.000000000000000000 ) ) ;
#97 = EDGE_CURVE ( 'NONE', #11, #206, #28, .T. ) ;
#98 = DATE_AND_TIME ( #174, #32 ) ;
#99 = CARTESIAN_POINT ( 'NONE',  ( 0.0000000000000000000, -2.693437471413401700E-017, 0.04970953306828965200 ) ) ;
#100 = ADVANCED_FACE ( 'NONE', ( #277 ), #87, .T. ) ;
#101 = FACE_OUTER_BOUND ( 'NONE', #137, .T. ) ;
#102 = CALENDAR_DATE ( 2016, 25, 7 ) ;
#103 = SECURITY_CLASSIFICATION ( '', '', #141 ) ;
#104 = ORIENTED_EDGE ( 'NONE', *, *, #46, .T. ) ;
#105 = AXIS2_PLACEMENT_3D ( 'NONE', #23, #74, #233 ) ;
#106 = VECTOR ( 'NONE', #208, 39.37007874015748100 ) ;
#107 = DESIGN_CONTEXT ( 'detailed design', #18, 'design' ) ;
#108 = ORIENTED_EDGE ( 'NONE', *, *, #246, .F. ) ;
#109 = DIRECTION ( 'NONE',  ( 0.0000000000000000000, 1.000000000000000000, 3.692374034272836400E-016 ) ) ;
#110 = CONICAL_SURFACE ( 'NONE', #105, 0.4921259842519686800, 0.7853981633974439500 ) ;
#111 = EDGE_CURVE ( 'NONE', #249, #202, #58, .T. ) ;
#112 = DIRECTION ( 'NONE',  ( 0.0000000000000000000, -1.000000000000000000, -3.122502256758251800E-016 ) ) ;
#113 = CC_DESIGN_PERSON_AND_ORGANIZATION_ASSIGNMENT ( #214, #304, ( #103 ) ) ;
#114 = CARTESIAN_POINT ( 'NONE',  ( 0.0000000000000000000, 1.239070208395082800E-017, -0.07874015748031496000 ) ) ;
#115 = CARTESIAN_POINT ( 'NONE',  ( 0.0000000000000000000, 1.239070208395084800E-017, -0.07874015748031502900 ) ) ;
#116 = PERSON_AND_ORGANIZATION_ROLE ( 'creator' ) ;
#117 = CARTESIAN_POINT ( 'NONE',  ( 6.026805113914142300E-017, 0.4921259842519686800, -0.07874015748031487600 ) ) ;
#118 = CALENDAR_DATE ( 2016, 25, 7 ) ;
#119 = CARTESIAN_POINT ( 'NONE',  ( 0.0000000000000000000, 9.980059655166675400E-018, -0.07086614173228365800 ) ) ;
#120 = ORIENTED_EDGE ( 'NONE', *, *, #235, .T. ) ;
#121 = CALENDAR_DATE ( 2016, 25, 7 ) ;
#122 = DIRECTION ( 'NONE',  ( 0.0000000000000000000, -1.000000000000000000, -3.073328992872296400E-016 ) ) ;
#123 = AXIS2_PLACEMENT_3D ( 'NONE', #186, #50, #213 ) ;
#124 = LINE ( 'NONE', #70, #128 ) ;
#125 = FACE_OUTER_BOUND ( 'NONE', #82, .T. ) ;
#126 = DATE_AND_TIME ( #102, #29 ) ;
#127 = VERTEX_POINT ( 'NONE', #226 ) ;
#128 = VECTOR ( 'NONE', #179, 39.37007874015748100 ) ;
#129 = CC_DESIGN_DATE_AND_TIME_ASSIGNMENT ( #136, #164, ( #103 ) ) ;
#130 = EDGE_CURVE ( 'NONE', #202, #127, #159, .T. ) ;
#131 = VERTEX_POINT ( 'NONE', #177 ) ;
#132 = ORIENTED_EDGE ( 'NONE', *, *, #81, .F. ) ;
#133 = VERTEX_POINT ( 'NONE', #42 ) ;
#134 = CARTESIAN_POINT ( 'NONE',  ( 0.0000000000000000000, 1.239070208395084800E-017, -0.07874015748031502900 ) ) ;
#135 = AXIS2_PLACEMENT_3D ( 'NONE', #99, #259, #122 ) ;
#136 = DATE_AND_TIME ( #241, #49 ) ;
#137 = EDGE_LOOP ( 'NONE', ( #95, #76, #263, #108 ) ) ;
#138 = DIRECTION ( 'NONE',  ( 0.0000000000000000000, -3.061515884555943100E-016, 1.000000000000000000 ) ) ;
#139 = PRODUCT ( 'TTN049372-E0W', 'TTN049372-E0W', '', ( #15 ) ) ;
#140 = DIRECTION ( 'NONE',  ( 0.0000000000000000000, 1.000000000000000000, 3.122502256758251800E-016 ) ) ;
#141 = SECURITY_CLASSIFICATION_LEVEL ( 'unclassified' ) ;
#142 = DIRECTION ( 'NONE',  ( 0.0000000000000000000, 1.000000000000000000, 3.073328992872296400E-016 ) ) ;
#143 = DIRECTION ( 'NONE',  ( 0.0000000000000000000, 1.000000000000000000, 3.073328992872296400E-016 ) ) ;
#144 =( CONVERSION_BASED_UNIT ( 'INCH', #175 ) LENGTH_UNIT ( ) NAMED_UNIT ( #148 ) );
#145 = APPROVAL_DATE_TIME ( #153, #34 ) ;
#146 = EDGE_LOOP ( 'NONE', ( #270, #83, #265 ) ) ;
#147 = CYLINDRICAL_SURFACE ( 'NONE', #9, 0.5000000000000000000 ) ;
#148 = DIMENSIONAL_EXPONENTS ( 1.000000000000000000, 0.0000000000000000000, 0.0000000000000000000, 0.0000000000000000000, 0.0000000000000000000, 0.0000000000000000000, 0.0000000000000000000 ) ;
#149 = DIRECTION ( 'NONE',  ( 0.0000000000000000000, 1.000000000000000000, 3.073328992872296400E-016 ) ) ;
#150 = CIRCLE ( 'NONE', #254, 0.5000000000000000000 ) ;
#151 = APPROVAL ( #19, 'UNSPECIFIED' ) ;
#152 = ORIENTED_EDGE ( 'NONE', *, *, #46, .F. ) ;
#153 = DATE_AND_TIME ( #121, #199 ) ;
#154 =( GEOMETRIC_REPRESENTATION_CONTEXT ( 3 ) GLOBAL_UNCERTAINTY_ASSIGNED_CONTEXT ( ( #237 ) ) GLOBAL_UNIT_ASSIGNED_CONTEXT ( ( #144, #3, #167 ) ) REPRESENTATION_CONTEXT ( 'NONE', 'WORKASPACE' ) );
#155 = SPHERICAL_SURFACE ( 'NONE', #38, 5.918897637795275600 ) ;
#156 = DIRECTION ( 'NONE',  ( 0.0000000000000000000, 0.0000000000000000000, 1.000000000000000000 ) ) ;
#157 = COORDINATED_UNIVERSAL_TIME_OFFSET ( 5, 0, .BEHIND. ) ;
#158 = DIRECTION ( 'NONE',  ( -0.0000000000000000000, 3.061515884555912600E-016, -1.000000000000000000 ) ) ;
#159 = CIRCLE ( 'NONE', #282, 0.5000000000000000000 ) ;
#160 = CARTESIAN_POINT ( 'NONE',  ( 6.123233995736766000E-017, -0.5000000000000000000, -0.07874015748031511200 ) ) ;
#161 = CC_DESIGN_APPROVAL ( #151, ( #103 ) ) ;
#162 = PERSON_AND_ORGANIZATION_ROLE ( 'design_owner' ) ;
#163 = DIRECTION ( 'NONE',  ( 0.0000000000000000000, 1.000000000000000000, 3.692374034272836400E-016 ) ) ;
#164 = DATE_TIME_ROLE ( 'classification_date' ) ;
#165 = CARTESIAN_POINT ( 'NONE',  ( 6.123233995736766000E-017, -0.5000000000000000000, 0.04970953306828949900 ) ) ;
#166 = CARTESIAN_POINT ( 'NONE',  ( 0.0000000000000000000, 0.0000000000000000000, 0.0000000000000000000 ) ) ;
#167 =( NAMED_UNIT ( * ) SI_UNIT ( $, .STERADIAN. ) SOLID_ANGLE_UNIT ( ) );
#168 = VECTOR ( 'NONE', #80, 39.37007874015748900 ) ;
#169 = CIRCLE ( 'NONE', #135, 0.5000000000000000000 ) ;
#170 = FACE_OUTER_BOUND ( 'NONE', #72, .T. ) ;
#171 = VECTOR ( 'NONE', #230, 39.37007874015748100 ) ;
#172 = CC_DESIGN_SECURITY_CLASSIFICATION ( #103, ( #16 ) ) ;
#173 = LOCAL_TIME ( 10, 35, 58.00000000000000000, #41 ) ;
#174 = CALENDAR_DATE ( 2016, 25, 7 ) ;
#175 = LENGTH_MEASURE_WITH_UNIT ( LENGTH_MEASURE( 0.02539999999999999900 ), #287 );
#176 = ORIENTED_EDGE ( 'NONE', *, *, #269, .F. ) ;
#177 = CARTESIAN_POINT ( 'NONE',  ( 0.0000000000000000000, -0.4921259842519686800, -0.07874015748031518200 ) ) ;
#178 = APPLICATION_PROTOCOL_DEFINITION ( 'international standard', 'config_control_design', 1994, #18 ) ;
#179 = DIRECTION ( 'NONE',  ( 0.0000000000000000000, -0.7071067811865446900, 0.7071067811865503500 ) ) ;
#180 = APPROVAL_ROLE ( '' ) ;
#181 = CIRCLE ( 'NONE', #91, 5.918897637795275600 ) ;
#182 = DIRECTION ( 'NONE',  ( -0.0000000000000000000, 3.061515884555943100E-016, -1.000000000000000000 ) ) ;
#183 = EDGE_LOOP ( 'NONE', ( #88, #104, #201, #21 ) ) ;
#184 = ORIENTED_EDGE ( 'NONE', *, *, #299, .F. ) ;
#185 = CARTESIAN_POINT ( 'NONE',  ( 0.0000000000000000000, 6.890098189951021000E-016, -5.840157480314960700 ) ) ;
#186 = CARTESIAN_POINT ( 'NONE',  ( 0.0000000000000000000, -1.116794862219768100E-015, 0.05824301574129479200 ) ) ;
#187 = APPLICATION_PROTOCOL_DEFINITION ( 'international standard', 'config_control_design', 1994, #215 ) ;
#188 = ORIENTED_EDGE ( 'NONE', *, *, #1, .F. ) ;
#189 = ADVANCED_FACE ( 'NONE', ( #170 ), #147, .T. ) ;
#190 = SHAPE_DEFINITION_REPRESENTATION ( #278, #273 ) ;
#191 = PRODUCT_RELATED_PRODUCT_CATEGORY ( 'detail', '', ( #139 ) ) ;
#192 = APPROVAL_PERSON_ORGANIZATION ( #53, #264, #210 ) ;
#193 = AXIS2_PLACEMENT_3D ( 'NONE', #13, #90, #149 ) ;
#194 = CIRCLE ( 'NONE', #57, 0.4921259842519686800 ) ;
#195 = LINE ( 'NONE', #274, #20 ) ;
#196 = DIRECTION ( 'NONE',  ( 0.0000000000000000000, 1.000000000000000000, 3.073328992872296400E-016 ) ) ;
#197 = ORIENTED_EDGE ( 'NONE', *, *, #299, .T. ) ;
#198 = PERSON_AND_ORGANIZATION ( #283, #239 ) ;
#199 = LOCAL_TIME ( 10, 35, 58.00000000000000000, #232 ) ;
#200 = CIRCLE ( 'NONE', #298, 0.4921259842519686800 ) ;
#201 = ORIENTED_EDGE ( 'NONE', *, *, #269, .T. ) ;
#202 = VERTEX_POINT ( 'NONE', #67 ) ;
#203 = CARTESIAN_POINT ( 'NONE',  ( 0.0000000000000000000, -7.606421423916457900E-016, 0.07874015748031502900 ) ) ;
#204 = EDGE_CURVE ( 'NONE', #131, #35, #200, .T. ) ;
#205 = APPROVAL_PERSON_ORGANIZATION ( #250, #151, #180 ) ;
#206 = VERTEX_POINT ( 'NONE', #44 ) ;
#207 = CARTESIAN_POINT ( 'NONE',  ( 0.0000000000000000000, 6.890098189951021000E-016, -5.840157480314960700 ) ) ;
#208 = DIRECTION ( 'NONE',  ( -0.0000000000000000000, 3.061515884555943100E-016, -1.000000000000000000 ) ) ;
#209 = CARTESIAN_POINT ( 'NONE',  ( 0.0000000000000000000, 6.890098189951021000E-016, -5.840157480314960700 ) ) ;
#210 = APPROVAL_ROLE ( '' ) ;
#211 = ORIENTED_EDGE ( 'NONE', *, *, #234, .F. ) ;
#212 = DIRECTION ( 'NONE',  ( -1.224646799147353500E-016, 1.000000000000000000, 0.0000000000000000000 ) ) ;
#213 = DIRECTION ( 'NONE',  ( 0.0000000000000000000, 1.000000000000000000, 3.122290509760246300E-016 ) ) ;
#214 = PERSON_AND_ORGANIZATION ( #283, #239 ) ;
#215 = APPLICATION_CONTEXT ( 'configuration controlled 3d designs of mechanical parts and assemblies' ) ;
#216 = ADVANCED_FACE ( 'NONE', ( #33 ), #155, .T. ) ;
#217 = AXIS2_PLACEMENT_3D ( 'NONE', #166, #24, #77 ) ;
#218 = FACE_OUTER_BOUND ( 'NONE', #272, .T. ) ;
#219 = MANIFOLD_SOLID_BREP ( 'TTN049373-1-solid1', #31 ) ;
#220 = EDGE_CURVE ( 'NONE', #133, #206, #85, .T. ) ;
#221 = LINE ( 'NONE', #260, #168 ) ;
#222 = LINE ( 'NONE', #258, #171 ) ;
#223 = DIRECTION ( 'NONE',  ( 0.0000000000000000000, 1.000000000000000000, 3.061515884555943100E-016 ) ) ;
#224 = CC_DESIGN_PERSON_AND_ORGANIZATION_ASSIGNMENT ( #289, #162, ( #139 ) ) ;
#225 = EDGE_CURVE ( 'NONE', #131, #202, #124, .T. ) ;
#226 = CARTESIAN_POINT ( 'NONE',  ( 0.0000000000000000000, 0.5000000000000000000, -0.07086614173228350500 ) ) ;
#227 = DIRECTION ( 'NONE',  ( 8.659560562354895900E-017, 0.7071067811865442400, 0.7071067811865507900 ) ) ;
#228 = DATE_TIME_ROLE ( 'creation_date' ) ;
#229 = CARTESIAN_POINT ( 'NONE',  ( 0.0000000000000000000, -1.116794862219768100E-015, 0.05824301574129479200 ) ) ;
#230 = DIRECTION ( 'NONE',  ( -0.0000000000000000000, 3.061515884555943100E-016, -1.000000000000000000 ) ) ;
#231 = APPROVAL_DATE_TIME ( #54, #264 ) ;
#232 = COORDINATED_UNIVERSAL_TIME_OFFSET ( 5, 0, .BEHIND. ) ;
#233 = DIRECTION ( 'NONE',  ( 0.0000000000000000000, -1.000000000000000000, -3.122502256758251800E-016 ) ) ;
#234 = EDGE_CURVE ( 'NONE', #35, #131, #194, .T. ) ;
#235 = EDGE_CURVE ( 'NONE', #35, #127, #10, .T. ) ;
#236 = DIRECTION ( 'NONE',  ( -0.0000000000000000000, 3.061515884555912600E-016, -1.000000000000000000 ) ) ;
#237 = UNCERTAINTY_MEASURE_WITH_UNIT (LENGTH_MEASURE( 1.000000000000000100E-005 ), #144, 'distance_accuracy_value', 'NONE');
#238 = AXIS2_PLACEMENT_3D ( 'NONE', #36, #62, #109 ) ;
#239 = ORGANIZATION ( 'UNSPECIFIED', 'UNSPECIFIED', '' ) ;
#240 = EDGE_LOOP ( 'NONE', ( #188, #184, #71, #152 ) ) ;
#241 = CALENDAR_DATE ( 2016, 25, 7 ) ;
#242 = AXIS2_PLACEMENT_3D ( 'NONE', #25, #286, #143 ) ;
#243 = PRODUCT_DEFINITION ( 'UNKNOWN', '', #16, #107 ) ;
#244 = AXIS2_PLACEMENT_3D ( 'NONE', #296, #297, #223 ) ;
#245 = ORIENTED_EDGE ( 'NONE', *, *, #234, .T. ) ;
#246 = EDGE_CURVE ( 'NONE', #127, #202, #293, .T. ) ;
#247 = COORDINATED_UNIVERSAL_TIME_OFFSET ( 5, 0, .BEHIND. ) ;
#248 = DIRECTION ( 'NONE',  ( 0.0000000000000000000, -3.061515884555943100E-016, 1.000000000000000000 ) ) ;
#249 = VERTEX_POINT ( 'NONE', #165 ) ;
#250 = PERSON_AND_ORGANIZATION ( #283, #239 ) ;
#251 = DIRECTION ( 'NONE',  ( 1.000000000000000000, 0.0000000000000000000, -0.0000000000000000000 ) ) ;
#252 = APPROVAL_ROLE ( '' ) ;
#253 = FACE_OUTER_BOUND ( 'NONE', #55, .T. ) ;
#254 = AXIS2_PLACEMENT_3D ( 'NONE', #301, #158, #14 ) ;
#255 = DIRECTION ( 'NONE',  ( 0.0000000000000000000, 1.000000000000000000, 3.122290509760246300E-016 ) ) ;
#256 = ORIENTED_EDGE ( 'NONE', *, *, #225, .F. ) ;
#257 = EDGE_LOOP ( 'NONE', ( #43, #12, #294, #132 ) ) ;
#258 = CARTESIAN_POINT ( 'NONE',  ( 0.0000000000000000000, 0.5000000000000000000, -0.07874015748031480700 ) ) ;
#259 = DIRECTION ( 'NONE',  ( -0.0000000000000000000, 3.061515884555912600E-016, -1.000000000000000000 ) ) ;
#260 = CARTESIAN_POINT ( 'NONE',  ( 0.0000000000000000000, 0.5000000000000000000, 0.04970953306828972100 ) ) ;
#261 = AXIS2_PLACEMENT_3D ( 'NONE', #27, #236, #196 ) ;
#262 = APPROVAL_PERSON_ORGANIZATION ( #275, #34, #252 ) ;
#263 = ORIENTED_EDGE ( 'NONE', *, *, #225, .T. ) ;
#264 = APPROVAL ( #45, 'UNSPECIFIED' ) ;
#265 = ORIENTED_EDGE ( 'NONE', *, *, #220, .T. ) ;
#266 = ORIENTED_EDGE ( 'NONE', *, *, #130, .T. ) ;
#267 = AXIS2_PLACEMENT_3D ( 'NONE', #207, #39, #156 ) ;
#268 = EDGE_CURVE ( 'NONE', #11, #133, #181, .T. ) ;
#269 = EDGE_CURVE ( 'NONE', #295, #127, #222, .T. ) ;
#270 = ORIENTED_EDGE ( 'NONE', *, *, #97, .F. ) ;
#271 = COORDINATED_UNIVERSAL_TIME_OFFSET ( 5, 0, .BEHIND. ) ;
#272 = EDGE_LOOP ( 'NONE', ( #30, #6, #197 ) ) ;
#273 = ADVANCED_BREP_SHAPE_REPRESENTATION ( 'TTN049372-E0W', ( #219, #217 ), #154 ) ;
#274 = CARTESIAN_POINT ( 'NONE',  ( 6.123233995736764800E-017, -0.5000000000000000000, 0.04970953306828941600 ) ) ;
#275 = PERSON_AND_ORGANIZATION ( #283, #239 ) ;
#276 = CC_DESIGN_APPROVAL ( #264, ( #243 ) ) ;
#277 = FACE_OUTER_BOUND ( 'NONE', #183, .T. ) ;
#278 = PRODUCT_DEFINITION_SHAPE ( 'NONE', 'NONE',  #243 ) ;
#279 = CARTESIAN_POINT ( 'NONE',  ( 0.0000000000000000000, 9.980059655166675400E-018, -0.07086614173228365800 ) ) ;
#280 = DIRECTION ( 'NONE',  ( -0.0000000000000000000, 3.061515884555943100E-016, -1.000000000000000000 ) ) ;
#281 = PERSON_AND_ORGANIZATION_ROLE ( 'design_supplier' ) ;
#282 = AXIS2_PLACEMENT_3D ( 'NONE', #279, #138, #303 ) ;
#283 = PERSON ( 'UNSPECIFIED', 'UNSPECIFIED', 'UNSPECIFIED', ('UNSPECIFIED'), ('UNSPECIFIED'), ('UNSPECIFIED') ) ;
#284 = DIRECTION ( 'NONE',  ( 0.0000000000000000000, -3.061515884555943100E-016, 1.000000000000000000 ) ) ;
#285 = CARTESIAN_POINT ( 'NONE',  ( 0.0000000000000000000, 0.5000000000000000000, 0.04970953306828980500 ) ) ;
#286 = DIRECTION ( 'NONE',  ( -0.0000000000000000000, 3.061515884555912600E-016, -1.000000000000000000 ) ) ;
#287 =( LENGTH_UNIT ( ) NAMED_UNIT ( * ) SI_UNIT ( $, .METRE. ) );
#288 = CONICAL_SURFACE ( 'NONE', #261, 0.5000000000000000000, 0.7431101716226155000 ) ;
#289 = PERSON_AND_ORGANIZATION ( #283, #239 ) ;
#290 = ADVANCED_FACE ( 'NONE', ( #253 ), #110, .T. ) ;
#291 = CONICAL_SURFACE ( 'NONE', #302, 0.4921259842519686800, 0.7853981633974439500 ) ;
#292 = CC_DESIGN_PERSON_AND_ORGANIZATION_ASSIGNMENT ( #198, #68, ( #243 ) ) ;
#293 = CIRCLE ( 'NONE', #75, 0.5000000000000000000 ) ;
#294 = ORIENTED_EDGE ( 'NONE', *, *, #300, .F. ) ;
#295 = VERTEX_POINT ( 'NONE', #285 ) ;
#296 = CARTESIAN_POINT ( 'NONE',  ( 0.0000000000000000000, 1.239070208395084900E-017, -0.07874015748031502900 ) ) ;
#297 = DIRECTION ( 'NONE',  ( -0.0000000000000000000, 3.061515884555943100E-016, -1.000000000000000000 ) ) ;
#298 = AXIS2_PLACEMENT_3D ( 'NONE', #115, #280, #140 ) ;
#299 = EDGE_CURVE ( 'NONE', #206, #133, #73, .T. ) ;
#300 = EDGE_CURVE ( 'NONE', #295, #249, #169, .T. ) ;
#301 = CARTESIAN_POINT ( 'NONE',  ( 0.0000000000000000000, -2.693437471413401700E-017, 0.04970953306828965200 ) ) ;
#302 = AXIS2_PLACEMENT_3D ( 'NONE', #134, #248, #112 ) ;
#303 = DIRECTION ( 'NONE',  ( 0.0000000000000000000, 1.000000000000000000, 3.073328992872296400E-016 ) ) ;
#304 = PERSON_AND_ORGANIZATION_ROLE ( 'classification_officer' ) ;
ENDSEC;
END-ISO-10303-21;
