ISO-10303-21;
HEADER;
FILE_DESCRIPTION (( 'STEP AP203' ),
    '1' );
FILE_NAME ('Web Model 68157_20927.step',
    '2022-03-15T19:22:01',
    ( '' ),
    ( '' ),
    'SwSTEP 2.0',
    'SolidWorks 2021',
    '' );
FILE_SCHEMA (( 'CONFIG_CONTROL_DESIGN' ));
ENDSEC;

DATA;
#1 = CARTESIAN_POINT ( 'NONE',  ( 0.000000000000000000, 0.000000000000000000, 0.000000000000000000 ) ) ;
#2 =( LENGTH_UNIT ( ) NAMED_UNIT ( * ) SI_UNIT ( .MILLI., .METRE. ) );
#3 = CYLINDRICAL_SURFACE ( 'NONE', #143, 6.349999999999999645 ) ;
#4 = CIRCLE ( 'NONE', #31, 6.349999999999999645 ) ;
#5 = PERSON_AND_ORGANIZATION_ROLE ( 'creator' ) ;
#6 = FACE_OUTER_BOUND ( 'NONE', #43, .T. ) ;
#7 = SECURITY_CLASSIFICATION ( '', '', #146 ) ;
#8 = DATE_TIME_ROLE ( 'creation_date' ) ;
#9 = ORIENTED_EDGE ( 'NONE', *, *, #52, .F. ) ;
#10 = DIRECTION ( 'NONE',  ( -0.000000000000000000, -0.000000000000000000, -1.000000000000000000 ) ) ;
#11 = ORIENTED_EDGE ( 'NONE', *, *, #165, .T. ) ;
#12 = APPROVAL_ROLE ( '' ) ;
#13 = DIRECTION ( 'NONE',  ( 1.000000000000000000, 0.000000000000000000, 0.000000000000000000 ) ) ;
#14 = LOCAL_TIME ( 15, 22, 1.000000000000000000, #141 ) ;
#15 = DIRECTION ( 'NONE',  ( 1.000000000000000000, 0.000000000000000000, 0.000000000000000000 ) ) ;
#16 = DATE_AND_TIME ( #37, #14 ) ;
#17 = DIRECTION ( 'NONE',  ( 0.000000000000000000, 0.000000000000000000, 1.000000000000000000 ) ) ;
#18 = AXIS2_PLACEMENT_3D ( 'NONE', #160, #145, #154 ) ;
#19 = EDGE_CURVE ( 'NONE', #58, #93, #22, .T. ) ;
#20 = UNCERTAINTY_MEASURE_WITH_UNIT (LENGTH_MEASURE( 1.000000000000000082E-05 ), #2, 'distance_accuracy_value', 'NONE');
#21 = CC_DESIGN_APPROVAL ( #36, ( #119 ) ) ;
#22 = LINE ( 'NONE', #137, #48 ) ;
#23 = CALENDAR_DATE ( 2022, 15, 3 ) ;
#24 = PERSON_AND_ORGANIZATION_ROLE ( 'classification_officer' ) ;
#25 = ADVANCED_FACE ( 'NONE', ( #6 ), #72, .F. ) ;
#26 = EDGE_LOOP ( 'NONE', ( #38, #9, #148, #11 ) ) ;
#27 = CC_DESIGN_PERSON_AND_ORGANIZATION_ASSIGNMENT ( #39, #144, ( #119 ) ) ;
#28 = PERSON_AND_ORGANIZATION ( #35, #67 ) ;
#29 = PRODUCT_RELATED_PRODUCT_CATEGORY ( 'detail', '', ( #153 ) ) ;
#30 = VERTEX_POINT ( 'NONE', #66 ) ;
#31 = AXIS2_PLACEMENT_3D ( 'NONE', #159, #80, #68 ) ;
#32 = FACE_OUTER_BOUND ( 'NONE', #133, .T. ) ;
#33 = APPLICATION_PROTOCOL_DEFINITION ( 'international standard', 'config_control_design', 1994, #55 ) ;
#34 = CARTESIAN_POINT ( 'NONE',  ( -6.349999999999999645, 0.000000000000000000, 2.000000000000000000 ) ) ;
#35 = PERSON ( 'UNSPECIFIED', 'UNSPECIFIED', 'UNSPECIFIED', ('UNSPECIFIED'), ('UNSPECIFIED'), ('UNSPECIFIED') ) ;
#36 = APPROVAL ( #78, 'UNSPECIFIED' ) ;
#37 = CALENDAR_DATE ( 2022, 15, 3 ) ;
#38 = ORIENTED_EDGE ( 'NONE', *, *, #19, .F. ) ;
#39 = PERSON_AND_ORGANIZATION ( #35, #67 ) ;
#40 = ORIENTED_EDGE ( 'NONE', *, *, #44, .T. ) ;
#41 = LOCAL_TIME ( 15, 22, 1.000000000000000000, #173 ) ;
#42 = APPROVAL_PERSON_ORGANIZATION ( #121, #36, #12 ) ;
#43 = EDGE_LOOP ( 'NONE', ( #161, #134 ) ) ;
#44 = EDGE_CURVE ( 'NONE', #58, #171, #92, .T. ) ;
#45 = CARTESIAN_POINT ( 'NONE',  ( 0.000000000000000000, 0.000000000000000000, 0.000000000000000000 ) ) ;
#46 = APPLICATION_CONTEXT ( 'configuration controlled 3d designs of mechanical parts and assemblies' ) ;
#47 = DIRECTION ( 'NONE',  ( 0.000000000000000000, 0.000000000000000000, 1.000000000000000000 ) ) ;
#48 = VECTOR ( 'NONE', #10, 1000.000000000000000 ) ;
#49 = DIRECTION ( 'NONE',  ( 0.000000000000000000, 0.000000000000000000, 1.000000000000000000 ) ) ;
#50 = DATE_AND_TIME ( #166, #73 ) ;
#51 = MANIFOLD_SOLID_BREP ( 'Boss-Extrude1', #64 ) ;
#52 = EDGE_CURVE ( 'NONE', #171, #58, #4, .T. ) ;
#53 = VECTOR ( 'NONE', #150, 1000.000000000000000 ) ;
#54 = DATE_AND_TIME ( #60, #149 ) ;
#55 = APPLICATION_CONTEXT ( 'configuration controlled 3d designs of mechanical parts and assemblies' ) ;
#56 = FACE_OUTER_BOUND ( 'NONE', #26, .T. ) ;
#57 = APPROVAL ( #123, 'UNSPECIFIED' ) ;
#58 = VERTEX_POINT ( 'NONE', #122 ) ;
#59 = PRODUCT_DEFINITION_SHAPE ( 'NONE', 'NONE',  #127 ) ;
#60 = CALENDAR_DATE ( 2022, 15, 3 ) ;
#61 = CARTESIAN_POINT ( 'NONE',  ( 0.000000000000000000, 0.000000000000000000, 2.000000000000000000 ) ) ;
#62 = CC_DESIGN_PERSON_AND_ORGANIZATION_ASSIGNMENT ( #97, #151, ( #153 ) ) ;
#63 =( NAMED_UNIT ( * ) SI_UNIT ( $, .STERADIAN. ) SOLID_ANGLE_UNIT ( ) );
#64 = CLOSED_SHELL ( 'NONE', ( #103, #74, #155, #25 ) ) ;
#65 = PERSON_AND_ORGANIZATION ( #35, #67 ) ;
#66 = CARTESIAN_POINT ( 'NONE',  ( -6.349999999999999645, 0.000000000000000000, 0.000000000000000000 ) ) ;
#67 = ORGANIZATION ( 'UNSPECIFIED', 'UNSPECIFIED', '' ) ;
#68 = DIRECTION ( 'NONE',  ( 1.000000000000000000, 0.000000000000000000, 0.000000000000000000 ) ) ;
#69 = CARTESIAN_POINT ( 'NONE',  ( 0.000000000000000000, 0.000000000000000000, 2.000000000000000000 ) ) ;
#70 = PERSON_AND_ORGANIZATION_ROLE ( 'design_supplier' ) ;
#71 = CIRCLE ( 'NONE', #84, 6.349999999999999645 ) ;
#72 = PLANE ( 'NONE',  #157 ) ;
#73 = LOCAL_TIME ( 15, 22, 1.000000000000000000, #129 ) ;
#74 = ADVANCED_FACE ( 'NONE', ( #56 ), #108, .T. ) ;
#75 = CARTESIAN_POINT ( 'NONE',  ( 0.000000000000000000, 0.000000000000000000, 2.000000000000000000 ) ) ;
#76 = CC_DESIGN_SECURITY_CLASSIFICATION ( #7, ( #119 ) ) ;
#77 = AXIS2_PLACEMENT_3D ( 'NONE', #1, #174, #13 ) ;
#78 = APPROVAL_STATUS ( 'not_yet_approved' ) ;
#79 = AXIS2_PLACEMENT_3D ( 'NONE', #45, #49, #100 ) ;
#80 = DIRECTION ( 'NONE',  ( 0.000000000000000000, 0.000000000000000000, 1.000000000000000000 ) ) ;
#81 = ORIENTED_EDGE ( 'NONE', *, *, #19, .T. ) ;
#82 = DATE_TIME_ROLE ( 'classification_date' ) ;
#83 = ORIENTED_EDGE ( 'NONE', *, *, #90, .F. ) ;
#84 = AXIS2_PLACEMENT_3D ( 'NONE', #163, #87, #15 ) ;
#85 = APPROVAL_DATE_TIME ( #131, #36 ) ;
#86 = CARTESIAN_POINT ( 'NONE',  ( -6.349999999999999645, 0.000000000000000000, 2.000000000000000000 ) ) ;
#87 = DIRECTION ( 'NONE',  ( 0.000000000000000000, 0.000000000000000000, 1.000000000000000000 ) ) ;
#88 = MECHANICAL_CONTEXT ( 'NONE', #46, 'mechanical' ) ;
#89 = PERSON_AND_ORGANIZATION ( #35, #67 ) ;
#90 = EDGE_CURVE ( 'NONE', #171, #30, #115, .T. ) ;
#91 = ORIENTED_EDGE ( 'NONE', *, *, #52, .T. ) ;
#92 = CIRCLE ( 'NONE', #164, 6.349999999999999645 ) ;
#93 = VERTEX_POINT ( 'NONE', #138 ) ;
#94 = CC_DESIGN_PERSON_AND_ORGANIZATION_ASSIGNMENT ( #89, #5, ( #127 ) ) ;
#95 = APPROVAL_DATE_TIME ( #147, #57 ) ;
#96 =( GEOMETRIC_REPRESENTATION_CONTEXT ( 3 ) GLOBAL_UNCERTAINTY_ASSIGNED_CONTEXT ( ( #20 ) ) GLOBAL_UNIT_ASSIGNED_CONTEXT ( ( #2, #140, #63 ) ) REPRESENTATION_CONTEXT ( 'NONE', 'WORKASPACE' ) );
#97 = PERSON_AND_ORGANIZATION ( #35, #67 ) ;
#98 = DIRECTION ( 'NONE',  ( -0.000000000000000000, -0.000000000000000000, -1.000000000000000000 ) ) ;
#99 = APPLICATION_PROTOCOL_DEFINITION ( 'international standard', 'config_control_design', 1994, #46 ) ;
#100 = DIRECTION ( 'NONE',  ( 1.000000000000000000, 0.000000000000000000, 0.000000000000000000 ) ) ;
#101 = APPROVAL_STATUS ( 'not_yet_approved' ) ;
#102 = CARTESIAN_POINT ( 'NONE',  ( 0.000000000000000000, 0.000000000000000000, 0.000000000000000000 ) ) ;
#103 = ADVANCED_FACE ( 'NONE', ( #32 ), #3, .T. ) ;
#104 = CC_DESIGN_APPROVAL ( #167, ( #127 ) ) ;
#105 = ADVANCED_BREP_SHAPE_REPRESENTATION ( 'Web Model 68157_20927', ( #51, #79 ), #96 ) ;
#106 = DIRECTION ( 'NONE',  ( 1.000000000000000000, 0.000000000000000000, 0.000000000000000000 ) ) ;
#107 = APPROVAL_ROLE ( '' ) ;
#108 = CYLINDRICAL_SURFACE ( 'NONE', #18, 6.349999999999999645 ) ;
#109 = COORDINATED_UNIVERSAL_TIME_OFFSET ( 5, 0, .BEHIND. ) ;
#110 = COORDINATED_UNIVERSAL_TIME_OFFSET ( 5, 0, .BEHIND. ) ;
#111 = SHAPE_DEFINITION_REPRESENTATION ( #59, #105 ) ;
#112 = LOCAL_TIME ( 15, 22, 1.000000000000000000, #110 ) ;
#113 = DIRECTION ( 'NONE',  ( -1.000000000000000000, 0.000000000000000000, 0.000000000000000000 ) ) ;
#114 = CC_DESIGN_DATE_AND_TIME_ASSIGNMENT ( #50, #8, ( #127 ) ) ;
#115 = LINE ( 'NONE', #86, #53 ) ;
#116 = AXIS2_PLACEMENT_3D ( 'NONE', #61, #47, #152 ) ;
#117 = APPROVAL_DATE_TIME ( #16, #167 ) ;
#118 = DESIGN_CONTEXT ( 'detailed design', #55, 'design' ) ;
#119 = PRODUCT_DEFINITION_FORMATION_WITH_SPECIFIED_SOURCE ( 'ANY', '', #153, .NOT_KNOWN. ) ;
#120 = EDGE_CURVE ( 'NONE', #93, #30, #71, .T. ) ;
#121 = PERSON_AND_ORGANIZATION ( #35, #67 ) ;
#122 = CARTESIAN_POINT ( 'NONE',  ( 6.349999999999999645, 7.776507174585692163E-16, 2.000000000000000000 ) ) ;
#123 = APPROVAL_STATUS ( 'not_yet_approved' ) ;
#124 = CC_DESIGN_DATE_AND_TIME_ASSIGNMENT ( #54, #82, ( #7 ) ) ;
#125 = APPROVAL_PERSON_ORGANIZATION ( #65, #167, #156 ) ;
#126 = PLANE ( 'NONE',  #116 ) ;
#127 = PRODUCT_DEFINITION ( 'UNKNOWN', '', #119, #118 ) ;
#128 = FACE_OUTER_BOUND ( 'NONE', #142, .T. ) ;
#129 = COORDINATED_UNIVERSAL_TIME_OFFSET ( 5, 0, .BEHIND. ) ;
#130 = DIRECTION ( 'NONE',  ( 1.000000000000000000, 0.000000000000000000, -0.000000000000000000 ) ) ;
#131 = DATE_AND_TIME ( #135, #112 ) ;
#132 = ORIENTED_EDGE ( 'NONE', *, *, #44, .F. ) ;
#133 = EDGE_LOOP ( 'NONE', ( #132, #81, #168, #83 ) ) ;
#134 = ORIENTED_EDGE ( 'NONE', *, *, #120, .F. ) ;
#135 = CALENDAR_DATE ( 2022, 15, 3 ) ;
#136 = CIRCLE ( 'NONE', #77, 6.349999999999999645 ) ;
#137 = CARTESIAN_POINT ( 'NONE',  ( 6.349999999999999645, 7.776507174585692163E-16, 2.000000000000000000 ) ) ;
#138 = CARTESIAN_POINT ( 'NONE',  ( 6.349999999999999645, 7.776507174585692163E-16, 0.000000000000000000 ) ) ;
#139 = CC_DESIGN_PERSON_AND_ORGANIZATION_ASSIGNMENT ( #28, #24, ( #7 ) ) ;
#140 =( NAMED_UNIT ( * ) PLANE_ANGLE_UNIT ( ) SI_UNIT ( $, .RADIAN. ) );
#141 = COORDINATED_UNIVERSAL_TIME_OFFSET ( 5, 0, .BEHIND. ) ;
#142 = EDGE_LOOP ( 'NONE', ( #91, #40 ) ) ;
#143 = AXIS2_PLACEMENT_3D ( 'NONE', #75, #98, #113 ) ;
#144 = PERSON_AND_ORGANIZATION_ROLE ( 'creator' ) ;
#145 = DIRECTION ( 'NONE',  ( -0.000000000000000000, -0.000000000000000000, -1.000000000000000000 ) ) ;
#146 = SECURITY_CLASSIFICATION_LEVEL ( 'unclassified' ) ;
#147 = DATE_AND_TIME ( #23, #41 ) ;
#148 = ORIENTED_EDGE ( 'NONE', *, *, #90, .T. ) ;
#149 = LOCAL_TIME ( 15, 22, 1.000000000000000000, #109 ) ;
#150 = DIRECTION ( 'NONE',  ( -0.000000000000000000, -0.000000000000000000, -1.000000000000000000 ) ) ;
#151 = PERSON_AND_ORGANIZATION_ROLE ( 'design_owner' ) ;
#152 = DIRECTION ( 'NONE',  ( 1.000000000000000000, 0.000000000000000000, -0.000000000000000000 ) ) ;
#153 = PRODUCT ( 'Web Model 68157_20927', 'Web Model 68157_20927', '', ( #88 ) ) ;
#154 = DIRECTION ( 'NONE',  ( -1.000000000000000000, 0.000000000000000000, 0.000000000000000000 ) ) ;
#155 = ADVANCED_FACE ( 'NONE', ( #128 ), #126, .T. ) ;
#156 = APPROVAL_ROLE ( '' ) ;
#157 = AXIS2_PLACEMENT_3D ( 'NONE', #102, #17, #130 ) ;
#158 = PERSON_AND_ORGANIZATION ( #35, #67 ) ;
#159 = CARTESIAN_POINT ( 'NONE',  ( 0.000000000000000000, 0.000000000000000000, 2.000000000000000000 ) ) ;
#160 = CARTESIAN_POINT ( 'NONE',  ( 0.000000000000000000, 0.000000000000000000, 2.000000000000000000 ) ) ;
#161 = ORIENTED_EDGE ( 'NONE', *, *, #165, .F. ) ;
#162 = APPROVAL_PERSON_ORGANIZATION ( #158, #57, #107 ) ;
#163 = CARTESIAN_POINT ( 'NONE',  ( 0.000000000000000000, 0.000000000000000000, 0.000000000000000000 ) ) ;
#164 = AXIS2_PLACEMENT_3D ( 'NONE', #69, #172, #106 ) ;
#165 = EDGE_CURVE ( 'NONE', #30, #93, #136, .T. ) ;
#166 = CALENDAR_DATE ( 2022, 15, 3 ) ;
#167 = APPROVAL ( #101, 'UNSPECIFIED' ) ;
#168 = ORIENTED_EDGE ( 'NONE', *, *, #120, .T. ) ;
#169 = CC_DESIGN_PERSON_AND_ORGANIZATION_ASSIGNMENT ( #170, #70, ( #119 ) ) ;
#170 = PERSON_AND_ORGANIZATION ( #35, #67 ) ;
#171 = VERTEX_POINT ( 'NONE', #34 ) ;
#172 = DIRECTION ( 'NONE',  ( 0.000000000000000000, 0.000000000000000000, 1.000000000000000000 ) ) ;
#173 = COORDINATED_UNIVERSAL_TIME_OFFSET ( 5, 0, .BEHIND. ) ;
#174 = DIRECTION ( 'NONE',  ( 0.000000000000000000, 0.000000000000000000, 1.000000000000000000 ) ) ;
#175 = CC_DESIGN_APPROVAL ( #57, ( #7 ) ) ;
ENDSEC;
END-ISO-10303-21;
