ISO-10303-21;
HEADER;
FILE_DESCRIPTION (( 'STEP AP203' ),
    '1' );
FILE_NAME ('Web Model 83472.STEP',
    '2017-02-01T15:23:05',
    ( '' ),
    ( '' ),
    'SwSTEP 2.0',
    'SolidWorks 2016',
    '' );
FILE_SCHEMA (( 'CONFIG_CONTROL_DESIGN' ));
ENDSEC;

DATA;
#1 = MECHANICAL_CONTEXT ( 'NONE', #71, 'mechanical' ) ;
#2 = ORIENTED_EDGE ( 'NONE', *, *, #52, .T. ) ;
#3 = APPROVAL_STATUS ( 'not_yet_approved' ) ;
#4 = LOCAL_TIME ( 10, 23, 5.000000000000000000, #75 ) ;
#5 = DIRECTION ( 'NONE',  ( -0.0000000000000000000, -0.0000000000000000000, -1.000000000000000000 ) ) ;
#6 = CIRCLE ( 'NONE', #165, 12.50000000000000000 ) ;
#7 = PERSON_AND_ORGANIZATION ( #148, #136 ) ;
#8 = ADVANCED_FACE ( 'NONE', ( #62 ), #105, .T. ) ;
#9 = ORIENTED_EDGE ( 'NONE', *, *, #113, .T. ) ;
#10 = CARTESIAN_POINT ( 'NONE',  ( 12.50000000000000000, 1.530808498934191500E-015, 4.000000000000000000 ) ) ;
#11 = AXIS2_PLACEMENT_3D ( 'NONE', #88, #145, #117 ) ;
#12 = CARTESIAN_POINT ( 'NONE',  ( -12.50000000000000000, 0.0000000000000000000, 0.0000000000000000000 ) ) ;
#13 = EDGE_CURVE ( 'NONE', #124, #36, #54, .T. ) ;
#14 = SHAPE_DEFINITION_REPRESENTATION ( #59, #22 ) ;
#15 = PERSON_AND_ORGANIZATION_ROLE ( 'design_supplier' ) ;
#16 = APPROVAL_ROLE ( '' ) ;
#17 = ORIENTED_EDGE ( 'NONE', *, *, #72, .F. ) ;
#18 = APPROVAL_DATE_TIME ( #77, #104 ) ;
#19 = PRODUCT_DEFINITION_FORMATION_WITH_SPECIFIED_SOURCE ( 'ANY', '', #123, .NOT_KNOWN. ) ;
#20 = CARTESIAN_POINT ( 'NONE',  ( 0.0000000000000000000, 0.0000000000000000000, 4.000000000000000000 ) ) ;
#21 = ORIENTED_EDGE ( 'NONE', *, *, #113, .F. ) ;
#22 = ADVANCED_BREP_SHAPE_REPRESENTATION ( 'Web Model 83472', ( #119, #47 ), #24 ) ;
#23 = CARTESIAN_POINT ( 'NONE',  ( 0.0000000000000000000, 0.0000000000000000000, 4.000000000000000000 ) ) ;
#24 =( GEOMETRIC_REPRESENTATION_CONTEXT ( 3 ) GLOBAL_UNCERTAINTY_ASSIGNED_CONTEXT ( ( #162 ) ) GLOBAL_UNIT_ASSIGNED_CONTEXT ( ( #114, #140, #116 ) ) REPRESENTATION_CONTEXT ( 'NONE', 'WORKASPACE' ) );
#25 = PERSON_AND_ORGANIZATION_ROLE ( 'creator' ) ;
#26 = PERSON_AND_ORGANIZATION_ROLE ( 'design_owner' ) ;
#27 = DATE_TIME_ROLE ( 'classification_date' ) ;
#28 = PRODUCT_DEFINITION ( 'UNKNOWN', '', #19, #155 ) ;
#29 = CALENDAR_DATE ( 2017, 1, 2 ) ;
#30 = CIRCLE ( 'NONE', #153, 12.50000000000000000 ) ;
#31 = CARTESIAN_POINT ( 'NONE',  ( 12.50000000000000000, 1.530808498934191500E-015, 0.0000000000000000000 ) ) ;
#32 = DIRECTION ( 'NONE',  ( 0.0000000000000000000, 0.0000000000000000000, 1.000000000000000000 ) ) ;
#33 = CARTESIAN_POINT ( 'NONE',  ( -12.50000000000000000, 0.0000000000000000000, 4.000000000000000000 ) ) ;
#34 = CALENDAR_DATE ( 2017, 1, 2 ) ;
#35 = CC_DESIGN_PERSON_AND_ORGANIZATION_ASSIGNMENT ( #94, #26, ( #123 ) ) ;
#36 = VERTEX_POINT ( 'NONE', #12 ) ;
#37 = VECTOR ( 'NONE', #167, 1000.000000000000000 ) ;
#38 = PERSON_AND_ORGANIZATION ( #148, #136 ) ;
#39 = APPROVAL ( #111, 'UNSPECIFIED' ) ;
#40 = SECURITY_CLASSIFICATION_LEVEL ( 'unclassified' ) ;
#41 = FACE_OUTER_BOUND ( 'NONE', #129, .T. ) ;
#42 = COORDINATED_UNIVERSAL_TIME_OFFSET ( 5, 0, .BEHIND. ) ;
#43 = CC_DESIGN_APPROVAL ( #76, ( #28 ) ) ;
#44 = CARTESIAN_POINT ( 'NONE',  ( 0.0000000000000000000, 0.0000000000000000000, 0.0000000000000000000 ) ) ;
#45 = CARTESIAN_POINT ( 'NONE',  ( 12.50000000000000000, 1.530808498934191500E-015, 4.000000000000000000 ) ) ;
#46 = ORIENTED_EDGE ( 'NONE', *, *, #52, .F. ) ;
#47 = AXIS2_PLACEMENT_3D ( 'NONE', #164, #109, #95 ) ;
#48 = CC_DESIGN_SECURITY_CLASSIFICATION ( #166, ( #19 ) ) ;
#49 = EDGE_LOOP ( 'NONE', ( #17, #9, #2, #172 ) ) ;
#50 = DATE_AND_TIME ( #55, #154 ) ;
#51 = LOCAL_TIME ( 10, 23, 5.000000000000000000, #90 ) ;
#52 = EDGE_CURVE ( 'NONE', #158, #36, #110, .T. ) ;
#53 = APPLICATION_PROTOCOL_DEFINITION ( 'international standard', 'config_control_design', 1994, #71 ) ;
#54 = LINE ( 'NONE', #106, #89 ) ;
#55 = CALENDAR_DATE ( 2017, 1, 2 ) ;
#56 = APPROVAL_PERSON_ORGANIZATION ( #97, #104, #128 ) ;
#57 = AXIS2_PLACEMENT_3D ( 'NONE', #20, #118, #168 ) ;
#58 = PRODUCT_RELATED_PRODUCT_CATEGORY ( 'detail', '', ( #123 ) ) ;
#59 = PRODUCT_DEFINITION_SHAPE ( 'NONE', 'NONE',  #28 ) ;
#60 = DIRECTION ( 'NONE',  ( -1.000000000000000000, 0.0000000000000000000, 0.0000000000000000000 ) ) ;
#61 = APPROVAL_PERSON_ORGANIZATION ( #80, #76, #16 ) ;
#62 = FACE_OUTER_BOUND ( 'NONE', #49, .T. ) ;
#63 = CARTESIAN_POINT ( 'NONE',  ( 0.0000000000000000000, 0.0000000000000000000, 0.0000000000000000000 ) ) ;
#64 = EDGE_CURVE ( 'NONE', #36, #158, #30, .T. ) ;
#65 = LOCAL_TIME ( 10, 23, 5.000000000000000000, #103 ) ;
#66 = AXIS2_PLACEMENT_3D ( 'NONE', #173, #32, #132 ) ;
#67 = COORDINATED_UNIVERSAL_TIME_OFFSET ( 5, 0, .BEHIND. ) ;
#68 = APPLICATION_PROTOCOL_DEFINITION ( 'international standard', 'config_control_design', 1994, #127 ) ;
#69 = ORIENTED_EDGE ( 'NONE', *, *, #64, .T. ) ;
#70 = PERSON_AND_ORGANIZATION_ROLE ( 'creator' ) ;
#71 = APPLICATION_CONTEXT ( 'configuration controlled 3d designs of mechanical parts and assemblies' ) ;
#72 = EDGE_CURVE ( 'NONE', #163, #124, #6, .T. ) ;
#73 = EDGE_LOOP ( 'NONE', ( #102, #149 ) ) ;
#74 = DIRECTION ( 'NONE',  ( -0.0000000000000000000, -0.0000000000000000000, -1.000000000000000000 ) ) ;
#75 = COORDINATED_UNIVERSAL_TIME_OFFSET ( 5, 0, .BEHIND. ) ;
#76 = APPROVAL ( #161, 'UNSPECIFIED' ) ;
#77 = DATE_AND_TIME ( #152, #51 ) ;
#78 = CC_DESIGN_DATE_AND_TIME_ASSIGNMENT ( #50, #27, ( #166 ) ) ;
#79 = FACE_OUTER_BOUND ( 'NONE', #169, .T. ) ;
#80 = PERSON_AND_ORGANIZATION ( #148, #136 ) ;
#81 = APPROVAL_ROLE ( '' ) ;
#82 = CLOSED_SHELL ( 'NONE', ( #8, #156, #171, #121 ) ) ;
#83 = CC_DESIGN_DATE_AND_TIME_ASSIGNMENT ( #138, #139, ( #28 ) ) ;
#84 = PERSON_AND_ORGANIZATION ( #148, #136 ) ;
#85 = CC_DESIGN_PERSON_AND_ORGANIZATION_ASSIGNMENT ( #7, #112, ( #166 ) ) ;
#86 = DIRECTION ( 'NONE',  ( 0.0000000000000000000, 0.0000000000000000000, 1.000000000000000000 ) ) ;
#87 = CARTESIAN_POINT ( 'NONE',  ( 0.0000000000000000000, 0.0000000000000000000, 4.000000000000000000 ) ) ;
#88 = CARTESIAN_POINT ( 'NONE',  ( 0.0000000000000000000, 0.0000000000000000000, 4.000000000000000000 ) ) ;
#89 = VECTOR ( 'NONE', #150, 1000.000000000000000 ) ;
#90 = COORDINATED_UNIVERSAL_TIME_OFFSET ( 5, 0, .BEHIND. ) ;
#91 = DATE_AND_TIME ( #130, #160 ) ;
#92 = AXIS2_PLACEMENT_3D ( 'NONE', #87, #74, #60 ) ;
#93 = CC_DESIGN_APPROVAL ( #39, ( #166 ) ) ;
#94 = PERSON_AND_ORGANIZATION ( #148, #136 ) ;
#95 = DIRECTION ( 'NONE',  ( 1.000000000000000000, 0.0000000000000000000, 0.0000000000000000000 ) ) ;
#96 = ORIENTED_EDGE ( 'NONE', *, *, #64, .F. ) ;
#97 = PERSON_AND_ORGANIZATION ( #148, #136 ) ;
#98 = DIRECTION ( 'NONE',  ( -1.000000000000000000, 0.0000000000000000000, 0.0000000000000000000 ) ) ;
#99 = DATE_AND_TIME ( #34, #4 ) ;
#100 = DIRECTION ( 'NONE',  ( 1.000000000000000000, 0.0000000000000000000, 0.0000000000000000000 ) ) ;
#101 = PLANE ( 'NONE',  #57 ) ;
#102 = ORIENTED_EDGE ( 'NONE', *, *, #157, .T. ) ;
#103 = COORDINATED_UNIVERSAL_TIME_OFFSET ( 5, 0, .BEHIND. ) ;
#104 = APPROVAL ( #3, 'UNSPECIFIED' ) ;
#105 = CYLINDRICAL_SURFACE ( 'NONE', #159, 12.50000000000000000 ) ;
#106 = CARTESIAN_POINT ( 'NONE',  ( -12.50000000000000000, 0.0000000000000000000, 4.000000000000000000 ) ) ;
#107 = PERSON_AND_ORGANIZATION ( #148, #136 ) ;
#108 = CIRCLE ( 'NONE', #11, 12.50000000000000000 ) ;
#109 = DIRECTION ( 'NONE',  ( 0.0000000000000000000, 0.0000000000000000000, 1.000000000000000000 ) ) ;
#110 = CIRCLE ( 'NONE', #66, 12.50000000000000000 ) ;
#111 = APPROVAL_STATUS ( 'not_yet_approved' ) ;
#112 = PERSON_AND_ORGANIZATION_ROLE ( 'classification_officer' ) ;
#113 = EDGE_CURVE ( 'NONE', #163, #158, #142, .T. ) ;
#114 =( LENGTH_UNIT ( ) NAMED_UNIT ( * ) SI_UNIT ( .MILLI., .METRE. ) );
#115 = CC_DESIGN_APPROVAL ( #104, ( #19 ) ) ;
#116 =( NAMED_UNIT ( * ) SI_UNIT ( $, .STERADIAN. ) SOLID_ANGLE_UNIT ( ) );
#117 = DIRECTION ( 'NONE',  ( 1.000000000000000000, 0.0000000000000000000, 0.0000000000000000000 ) ) ;
#118 = DIRECTION ( 'NONE',  ( 0.0000000000000000000, 0.0000000000000000000, 1.000000000000000000 ) ) ;
#119 = MANIFOLD_SOLID_BREP ( 'Extrude1', #82 ) ;
#120 = DIRECTION ( 'NONE',  ( 1.000000000000000000, 0.0000000000000000000, -0.0000000000000000000 ) ) ;
#121 = ADVANCED_FACE ( 'NONE', ( #79 ), #170, .F. ) ;
#122 = APPROVAL_PERSON_ORGANIZATION ( #38, #39, #81 ) ;
#123 = PRODUCT ( 'Web Model 83472', 'Web Model 83472', '', ( #1 ) ) ;
#124 = VERTEX_POINT ( 'NONE', #33 ) ;
#125 = PERSON_AND_ORGANIZATION ( #148, #136 ) ;
#126 = CC_DESIGN_PERSON_AND_ORGANIZATION_ASSIGNMENT ( #125, #25, ( #19 ) ) ;
#127 = APPLICATION_CONTEXT ( 'configuration controlled 3d designs of mechanical parts and assemblies' ) ;
#128 = APPROVAL_ROLE ( '' ) ;
#129 = EDGE_LOOP ( 'NONE', ( #21, #137, #144, #69 ) ) ;
#130 = CALENDAR_DATE ( 2017, 1, 2 ) ;
#131 = CARTESIAN_POINT ( 'NONE',  ( 0.0000000000000000000, 0.0000000000000000000, 4.000000000000000000 ) ) ;
#132 = DIRECTION ( 'NONE',  ( 1.000000000000000000, 0.0000000000000000000, 0.0000000000000000000 ) ) ;
#133 = DIRECTION ( 'NONE',  ( 0.0000000000000000000, 0.0000000000000000000, 1.000000000000000000 ) ) ;
#134 = APPROVAL_DATE_TIME ( #91, #39 ) ;
#135 = AXIS2_PLACEMENT_3D ( 'NONE', #44, #143, #120 ) ;
#136 = ORGANIZATION ( 'UNSPECIFIED', 'UNSPECIFIED', '' ) ;
#137 = ORIENTED_EDGE ( 'NONE', *, *, #157, .F. ) ;
#138 = DATE_AND_TIME ( #29, #65 ) ;
#139 = DATE_TIME_ROLE ( 'creation_date' ) ;
#140 =( NAMED_UNIT ( * ) PLANE_ANGLE_UNIT ( ) SI_UNIT ( $, .RADIAN. ) );
#141 = CC_DESIGN_PERSON_AND_ORGANIZATION_ASSIGNMENT ( #84, #15, ( #19 ) ) ;
#142 = LINE ( 'NONE', #45, #37 ) ;
#143 = DIRECTION ( 'NONE',  ( 0.0000000000000000000, 0.0000000000000000000, 1.000000000000000000 ) ) ;
#144 = ORIENTED_EDGE ( 'NONE', *, *, #13, .T. ) ;
#145 = DIRECTION ( 'NONE',  ( 0.0000000000000000000, 0.0000000000000000000, 1.000000000000000000 ) ) ;
#146 = DIRECTION ( 'NONE',  ( 1.000000000000000000, 0.0000000000000000000, 0.0000000000000000000 ) ) ;
#147 = APPROVAL_DATE_TIME ( #99, #76 ) ;
#148 = PERSON ( 'UNSPECIFIED', 'UNSPECIFIED', 'UNSPECIFIED', ('UNSPECIFIED'), ('UNSPECIFIED'), ('UNSPECIFIED') ) ;
#149 = ORIENTED_EDGE ( 'NONE', *, *, #72, .T. ) ;
#150 = DIRECTION ( 'NONE',  ( -0.0000000000000000000, -0.0000000000000000000, -1.000000000000000000 ) ) ;
#151 = CYLINDRICAL_SURFACE ( 'NONE', #92, 12.50000000000000000 ) ;
#152 = CALENDAR_DATE ( 2017, 1, 2 ) ;
#153 = AXIS2_PLACEMENT_3D ( 'NONE', #63, #86, #146 ) ;
#154 = LOCAL_TIME ( 10, 23, 5.000000000000000000, #67 ) ;
#155 = DESIGN_CONTEXT ( 'detailed design', #127, 'design' ) ;
#156 = ADVANCED_FACE ( 'NONE', ( #41 ), #151, .T. ) ;
#157 = EDGE_CURVE ( 'NONE', #124, #163, #108, .T. ) ;
#158 = VERTEX_POINT ( 'NONE', #31 ) ;
#159 = AXIS2_PLACEMENT_3D ( 'NONE', #23, #5, #98 ) ;
#160 = LOCAL_TIME ( 10, 23, 5.000000000000000000, #42 ) ;
#161 = APPROVAL_STATUS ( 'not_yet_approved' ) ;
#162 = UNCERTAINTY_MEASURE_WITH_UNIT (LENGTH_MEASURE( 1.000000000000000100E-005 ), #114, 'distance_accuracy_value', 'NONE');
#163 = VERTEX_POINT ( 'NONE', #10 ) ;
#164 = CARTESIAN_POINT ( 'NONE',  ( 0.0000000000000000000, 0.0000000000000000000, 0.0000000000000000000 ) ) ;
#165 = AXIS2_PLACEMENT_3D ( 'NONE', #131, #133, #100 ) ;
#166 = SECURITY_CLASSIFICATION ( '', '', #40 ) ;
#167 = DIRECTION ( 'NONE',  ( -0.0000000000000000000, -0.0000000000000000000, -1.000000000000000000 ) ) ;
#168 = DIRECTION ( 'NONE',  ( 1.000000000000000000, 0.0000000000000000000, -0.0000000000000000000 ) ) ;
#169 = EDGE_LOOP ( 'NONE', ( #96, #46 ) ) ;
#170 = PLANE ( 'NONE',  #135 ) ;
#171 = ADVANCED_FACE ( 'NONE', ( #174 ), #101, .T. ) ;
#172 = ORIENTED_EDGE ( 'NONE', *, *, #13, .F. ) ;
#173 = CARTESIAN_POINT ( 'NONE',  ( 0.0000000000000000000, 0.0000000000000000000, 0.0000000000000000000 ) ) ;
#174 = FACE_OUTER_BOUND ( 'NONE', #73, .T. ) ;
#175 = CC_DESIGN_PERSON_AND_ORGANIZATION_ASSIGNMENT ( #107, #70, ( #28 ) ) ;
ENDSEC;
END-ISO-10303-21;
