ISO-10303-21;
HEADER;
FILE_DESCRIPTION (( 'STEP AP203' ),
    '1' );
FILE_NAME ('Web Model 11899_11899.step',
    '2019-04-22T14:55:43',
    ( '' ),
    ( '' ),
    'SwSTEP 2.0',
    'SolidWorks 2018',
    '' );
FILE_SCHEMA (( 'CONFIG_CONTROL_DESIGN' ));
ENDSEC;

DATA;
#1 = CC_DESIGN_PERSON_AND_ORGANIZATION_ASSIGNMENT ( #3, #25, ( #100 ) ) ;
#2 = APPROVAL_PERSON_ORGANIZATION ( #165, #53, #122 ) ;
#3 = PERSON_AND_ORGANIZATION ( #57, #6 ) ;
#4 = CARTESIAN_POINT ( 'NONE',  ( -10.00000000000000178, 0.0000000000000000000, 2.000000000000000000 ) ) ;
#5 = DIRECTION ( 'NONE',  ( -1.000000000000000000, 0.0000000000000000000, 0.0000000000000000000 ) ) ;
#6 = ORGANIZATION ( 'UNSPECIFIED', 'UNSPECIFIED', '' ) ;
#7 = COORDINATED_UNIVERSAL_TIME_OFFSET ( 5, 0, .BEHIND. ) ;
#8 = ORIENTED_EDGE ( 'NONE', *, *, #94, .T. ) ;
#9 = CARTESIAN_POINT ( 'NONE',  ( 0.0000000000000000000, 0.0000000000000000000, 2.000000000000000000 ) ) ;
#10 = ORIENTED_EDGE ( 'NONE', *, *, #36, .T. ) ;
#11 = CARTESIAN_POINT ( 'NONE',  ( 0.0000000000000000000, 0.0000000000000000000, 2.000000000000000000 ) ) ;
#12 = PRODUCT_DEFINITION_FORMATION_WITH_SPECIFIED_SOURCE ( 'ANY', '', #100, .NOT_KNOWN. ) ;
#13 = VERTEX_POINT ( 'NONE', #17 ) ;
#14 = PERSON_AND_ORGANIZATION_ROLE ( 'creator' ) ;
#15 = APPROVAL_STATUS ( 'not_yet_approved' ) ;
#16 = PERSON_AND_ORGANIZATION ( #57, #6 ) ;
#17 = CARTESIAN_POINT ( 'NONE',  ( -10.00000000000000178, 0.0000000000000000000, 0.0000000000000000000 ) ) ;
#18 = ADVANCED_FACE ( 'NONE', ( #113 ), #82, .T. ) ;
#19 = APPROVAL_DATE_TIME ( #151, #52 ) ;
#20 = CLOSED_SHELL ( 'NONE', ( #18, #66, #98, #39 ) ) ;
#21 = CALENDAR_DATE ( 2019, 22, 4 ) ;
#22 = ORIENTED_EDGE ( 'NONE', *, *, #70, .T. ) ;
#23 = VECTOR ( 'NONE', #64, 1000.000000000000000 ) ;
#24 =( NAMED_UNIT ( * ) PLANE_ANGLE_UNIT ( ) SI_UNIT ( $, .RADIAN. ) );
#25 = PERSON_AND_ORGANIZATION_ROLE ( 'design_owner' ) ;
#26 = FACE_OUTER_BOUND ( 'NONE', #55, .T. ) ;
#27 = CC_DESIGN_APPROVAL ( #52, ( #12 ) ) ;
#28 = DATE_AND_TIME ( #62, #160 ) ;
#29 = EDGE_CURVE ( 'NONE', #96, #13, #51, .T. ) ;
#30 = ORIENTED_EDGE ( 'NONE', *, *, #29, .T. ) ;
#31 = DATE_AND_TIME ( #130, #108 ) ;
#32 = DIRECTION ( 'NONE',  ( 0.0000000000000000000, 0.0000000000000000000, 1.000000000000000000 ) ) ;
#33 = PRODUCT_DEFINITION_SHAPE ( 'NONE', 'NONE',  #110 ) ;
#34 = PERSON_AND_ORGANIZATION ( #57, #6 ) ;
#35 = PERSON_AND_ORGANIZATION_ROLE ( 'design_supplier' ) ;
#36 = EDGE_CURVE ( 'NONE', #161, #63, #157, .T. ) ;
#37 = ADVANCED_BREP_SHAPE_REPRESENTATION ( 'Web Model 11899_11899', ( #58, #40 ), #140 ) ;
#38 = CALENDAR_DATE ( 2019, 22, 4 ) ;
#39 = ADVANCED_FACE ( 'NONE', ( #168 ), #132, .F. ) ;
#40 = AXIS2_PLACEMENT_3D ( 'NONE', #48, #148, #74 ) ;
#41 = SHAPE_DEFINITION_REPRESENTATION ( #33, #37 ) ;
#42 = ORIENTED_EDGE ( 'NONE', *, *, #78, .F. ) ;
#43 = CC_DESIGN_PERSON_AND_ORGANIZATION_ASSIGNMENT ( #34, #158, ( #95 ) ) ;
#44 = ORIENTED_EDGE ( 'NONE', *, *, #29, .F. ) ;
#45 = DIRECTION ( 'NONE',  ( 1.000000000000000000, 0.0000000000000000000, -0.0000000000000000000 ) ) ;
#46 = DIRECTION ( 'NONE',  ( 1.000000000000000000, 0.0000000000000000000, 0.0000000000000000000 ) ) ;
#47 = PERSON_AND_ORGANIZATION ( #57, #6 ) ;
#48 = CARTESIAN_POINT ( 'NONE',  ( 0.0000000000000000000, 0.0000000000000000000, 0.0000000000000000000 ) ) ;
#49 = AXIS2_PLACEMENT_3D ( 'NONE', #131, #153, #45 ) ;
#50 = APPLICATION_CONTEXT ( 'configuration controlled 3d designs of mechanical parts and assemblies' ) ;
#51 = LINE ( 'NONE', #4, #23 ) ;
#52 = APPROVAL ( #92, 'UNSPECIFIED' ) ;
#53 = APPROVAL ( #15, 'UNSPECIFIED' ) ;
#54 = DIRECTION ( 'NONE',  ( -1.000000000000000000, 0.0000000000000000000, 0.0000000000000000000 ) ) ;
#55 = EDGE_LOOP ( 'NONE', ( #22, #120 ) ) ;
#56 = APPROVAL ( #169, 'UNSPECIFIED' ) ;
#57 = PERSON ( 'UNSPECIFIED', 'UNSPECIFIED', 'UNSPECIFIED', ('UNSPECIFIED'), ('UNSPECIFIED'), ('UNSPECIFIED') ) ;
#58 = MANIFOLD_SOLID_BREP ( '63204-1-solid1', #20 ) ;
#59 = PERSON_AND_ORGANIZATION_ROLE ( 'creator' ) ;
#60 = PRODUCT_RELATED_PRODUCT_CATEGORY ( 'detail', '', ( #100 ) ) ;
#61 = APPLICATION_CONTEXT ( 'configuration controlled 3d designs of mechanical parts and assemblies' ) ;
#62 = CALENDAR_DATE ( 2019, 22, 4 ) ;
#63 = VERTEX_POINT ( 'NONE', #83 ) ;
#64 = DIRECTION ( 'NONE',  ( -0.0000000000000000000, -0.0000000000000000000, -1.000000000000000000 ) ) ;
#65 = COORDINATED_UNIVERSAL_TIME_OFFSET ( 5, 0, .BEHIND. ) ;
#66 = ADVANCED_FACE ( 'NONE', ( #115 ), #162, .T. ) ;
#67 = DIRECTION ( 'NONE',  ( -0.0000000000000000000, -0.0000000000000000000, -1.000000000000000000 ) ) ;
#68 = AXIS2_PLACEMENT_3D ( 'NONE', #11, #104, #155 ) ;
#69 = COORDINATED_UNIVERSAL_TIME_OFFSET ( 5, 0, .BEHIND. ) ;
#70 = EDGE_CURVE ( 'NONE', #96, #161, #170, .T. ) ;
#71 = CC_DESIGN_DATE_AND_TIME_ASSIGNMENT ( #28, #146, ( #110 ) ) ;
#72 = DATE_AND_TIME ( #38, #97 ) ;
#73 = APPLICATION_PROTOCOL_DEFINITION ( 'international standard', 'config_control_design', 1994, #50 ) ;
#74 = DIRECTION ( 'NONE',  ( 1.000000000000000000, 0.0000000000000000000, 0.0000000000000000000 ) ) ;
#75 = CIRCLE ( 'NONE', #121, 10.00000000000000178 ) ;
#76 = AXIS2_PLACEMENT_3D ( 'NONE', #133, #128, #54 ) ;
#77 = VECTOR ( 'NONE', #114, 1000.000000000000000 ) ;
#78 = EDGE_CURVE ( 'NONE', #13, #63, #75, .T. ) ;
#79 = COORDINATED_UNIVERSAL_TIME_OFFSET ( 5, 0, .BEHIND. ) ;
#80 = CC_DESIGN_PERSON_AND_ORGANIZATION_ASSIGNMENT ( #16, #35, ( #12 ) ) ;
#81 = DATE_AND_TIME ( #21, #143 ) ;
#82 = CYLINDRICAL_SURFACE ( 'NONE', #147, 10.00000000000000178 ) ;
#83 = CARTESIAN_POINT ( 'NONE',  ( 10.00000000000000178, 1.224646799147353454E-15, 0.0000000000000000000 ) ) ;
#84 = DIRECTION ( 'NONE',  ( 1.000000000000000000, 0.0000000000000000000, -0.0000000000000000000 ) ) ;
#85 = APPROVAL_DATE_TIME ( #31, #56 ) ;
#86 = EDGE_LOOP ( 'NONE', ( #103, #150, #30, #126 ) ) ;
#87 = CARTESIAN_POINT ( 'NONE',  ( 0.0000000000000000000, 0.0000000000000000000, 0.0000000000000000000 ) ) ;
#88 = DIRECTION ( 'NONE',  ( 0.0000000000000000000, 0.0000000000000000000, 1.000000000000000000 ) ) ;
#89 = PERSON_AND_ORGANIZATION ( #57, #6 ) ;
#90 = DIRECTION ( 'NONE',  ( 0.0000000000000000000, 0.0000000000000000000, 1.000000000000000000 ) ) ;
#91 = CC_DESIGN_PERSON_AND_ORGANIZATION_ASSIGNMENT ( #47, #14, ( #12 ) ) ;
#92 = APPROVAL_STATUS ( 'not_yet_approved' ) ;
#93 = MECHANICAL_CONTEXT ( 'NONE', #61, 'mechanical' ) ;
#94 = EDGE_CURVE ( 'NONE', #63, #13, #139, .T. ) ;
#95 = SECURITY_CLASSIFICATION ( '', '', #106 ) ;
#96 = VERTEX_POINT ( 'NONE', #117 ) ;
#97 = LOCAL_TIME ( 10, 55, 43.00000000000000000, #69 ) ;
#98 = ADVANCED_FACE ( 'NONE', ( #26 ), #118, .T. ) ;
#99 = AXIS2_PLACEMENT_3D ( 'NONE', #9, #119, #116 ) ;
#100 = PRODUCT ( 'Web Model 11899_11899', 'Web Model 11899_11899', '', ( #93 ) ) ;
#101 = APPROVAL_PERSON_ORGANIZATION ( #145, #56, #123 ) ;
#102 = DIRECTION ( 'NONE',  ( 1.000000000000000000, 0.0000000000000000000, 0.0000000000000000000 ) ) ;
#103 = ORIENTED_EDGE ( 'NONE', *, *, #36, .F. ) ;
#104 = DIRECTION ( 'NONE',  ( 0.0000000000000000000, 0.0000000000000000000, 1.000000000000000000 ) ) ;
#105 = CC_DESIGN_PERSON_AND_ORGANIZATION_ASSIGNMENT ( #89, #59, ( #110 ) ) ;
#106 = SECURITY_CLASSIFICATION_LEVEL ( 'unclassified' ) ;
#107 = APPLICATION_PROTOCOL_DEFINITION ( 'international standard', 'config_control_design', 1994, #61 ) ;
#108 = LOCAL_TIME ( 10, 55, 43.00000000000000000, #125 ) ;
#109 = CARTESIAN_POINT ( 'NONE',  ( 10.00000000000000178, 1.224646799147353454E-15, 2.000000000000000000 ) ) ;
#110 = PRODUCT_DEFINITION ( 'UNKNOWN', '', #12, #174 ) ;
#111 = EDGE_LOOP ( 'NONE', ( #136, #10, #8, #44 ) ) ;
#112 = AXIS2_PLACEMENT_3D ( 'NONE', #144, #90, #84 ) ;
#113 = FACE_OUTER_BOUND ( 'NONE', #111, .T. ) ;
#114 = DIRECTION ( 'NONE',  ( -0.0000000000000000000, -0.0000000000000000000, -1.000000000000000000 ) ) ;
#115 = FACE_OUTER_BOUND ( 'NONE', #86, .T. ) ;
#116 = DIRECTION ( 'NONE',  ( 1.000000000000000000, 0.0000000000000000000, 0.0000000000000000000 ) ) ;
#117 = CARTESIAN_POINT ( 'NONE',  ( -10.00000000000000178, 0.0000000000000000000, 2.000000000000000000 ) ) ;
#118 = PLANE ( 'NONE',  #112 ) ;
#119 = DIRECTION ( 'NONE',  ( 0.0000000000000000000, 0.0000000000000000000, 1.000000000000000000 ) ) ;
#120 = ORIENTED_EDGE ( 'NONE', *, *, #159, .T. ) ;
#121 = AXIS2_PLACEMENT_3D ( 'NONE', #87, #88, #102 ) ;
#122 = APPROVAL_ROLE ( '' ) ;
#123 = APPROVAL_ROLE ( '' ) ;
#124 = CC_DESIGN_APPROVAL ( #53, ( #95 ) ) ;
#125 = COORDINATED_UNIVERSAL_TIME_OFFSET ( 5, 0, .BEHIND. ) ;
#126 = ORIENTED_EDGE ( 'NONE', *, *, #78, .T. ) ;
#127 = APPROVAL_PERSON_ORGANIZATION ( #166, #52, #173 ) ;
#128 = DIRECTION ( 'NONE',  ( -0.0000000000000000000, -0.0000000000000000000, -1.000000000000000000 ) ) ;
#129 = UNCERTAINTY_MEASURE_WITH_UNIT (LENGTH_MEASURE( 1.000000000000000082E-05 ), #167, 'distance_accuracy_value', 'NONE');
#130 = CALENDAR_DATE ( 2019, 22, 4 ) ;
#131 = CARTESIAN_POINT ( 'NONE',  ( 0.0000000000000000000, 0.0000000000000000000, 0.0000000000000000000 ) ) ;
#132 = PLANE ( 'NONE',  #49 ) ;
#133 = CARTESIAN_POINT ( 'NONE',  ( 0.0000000000000000000, 0.0000000000000000000, 2.000000000000000000 ) ) ;
#134 = CARTESIAN_POINT ( 'NONE',  ( 10.00000000000000178, 1.224646799147353454E-15, 2.000000000000000000 ) ) ;
#135 = CARTESIAN_POINT ( 'NONE',  ( 0.0000000000000000000, 0.0000000000000000000, 0.0000000000000000000 ) ) ;
#136 = ORIENTED_EDGE ( 'NONE', *, *, #159, .F. ) ;
#137 =( NAMED_UNIT ( * ) SI_UNIT ( $, .STERADIAN. ) SOLID_ANGLE_UNIT ( ) );
#138 = CC_DESIGN_DATE_AND_TIME_ASSIGNMENT ( #72, #171, ( #95 ) ) ;
#139 = CIRCLE ( 'NONE', #172, 10.00000000000000178 ) ;
#140 =( GEOMETRIC_REPRESENTATION_CONTEXT ( 3 ) GLOBAL_UNCERTAINTY_ASSIGNED_CONTEXT ( ( #129 ) ) GLOBAL_UNIT_ASSIGNED_CONTEXT ( ( #167, #24, #137 ) ) REPRESENTATION_CONTEXT ( 'NONE', 'WORKASPACE' ) );
#141 = CARTESIAN_POINT ( 'NONE',  ( 0.0000000000000000000, 0.0000000000000000000, 2.000000000000000000 ) ) ;
#142 = CALENDAR_DATE ( 2019, 22, 4 ) ;
#143 = LOCAL_TIME ( 10, 55, 43.00000000000000000, #7 ) ;
#144 = CARTESIAN_POINT ( 'NONE',  ( 0.0000000000000000000, 0.0000000000000000000, 2.000000000000000000 ) ) ;
#145 = PERSON_AND_ORGANIZATION ( #57, #6 ) ;
#146 = DATE_TIME_ROLE ( 'creation_date' ) ;
#147 = AXIS2_PLACEMENT_3D ( 'NONE', #141, #67, #5 ) ;
#148 = DIRECTION ( 'NONE',  ( 0.0000000000000000000, 0.0000000000000000000, 1.000000000000000000 ) ) ;
#149 = CC_DESIGN_APPROVAL ( #56, ( #110 ) ) ;
#150 = ORIENTED_EDGE ( 'NONE', *, *, #70, .F. ) ;
#151 = DATE_AND_TIME ( #142, #175 ) ;
#152 = ORIENTED_EDGE ( 'NONE', *, *, #94, .F. ) ;
#153 = DIRECTION ( 'NONE',  ( 0.0000000000000000000, 0.0000000000000000000, 1.000000000000000000 ) ) ;
#154 = CC_DESIGN_SECURITY_CLASSIFICATION ( #95, ( #12 ) ) ;
#155 = DIRECTION ( 'NONE',  ( 1.000000000000000000, 0.0000000000000000000, 0.0000000000000000000 ) ) ;
#156 = APPROVAL_DATE_TIME ( #81, #53 ) ;
#157 = LINE ( 'NONE', #109, #77 ) ;
#158 = PERSON_AND_ORGANIZATION_ROLE ( 'classification_officer' ) ;
#159 = EDGE_CURVE ( 'NONE', #161, #96, #163, .T. ) ;
#160 = LOCAL_TIME ( 10, 55, 43.00000000000000000, #65 ) ;
#161 = VERTEX_POINT ( 'NONE', #134 ) ;
#162 = CYLINDRICAL_SURFACE ( 'NONE', #76, 10.00000000000000178 ) ;
#163 = CIRCLE ( 'NONE', #68, 10.00000000000000178 ) ;
#164 = EDGE_LOOP ( 'NONE', ( #42, #152 ) ) ;
#165 = PERSON_AND_ORGANIZATION ( #57, #6 ) ;
#166 = PERSON_AND_ORGANIZATION ( #57, #6 ) ;
#167 =( LENGTH_UNIT ( ) NAMED_UNIT ( * ) SI_UNIT ( .MILLI., .METRE. ) );
#168 = FACE_OUTER_BOUND ( 'NONE', #164, .T. ) ;
#169 = APPROVAL_STATUS ( 'not_yet_approved' ) ;
#170 = CIRCLE ( 'NONE', #99, 10.00000000000000178 ) ;
#171 = DATE_TIME_ROLE ( 'classification_date' ) ;
#172 = AXIS2_PLACEMENT_3D ( 'NONE', #135, #32, #46 ) ;
#173 = APPROVAL_ROLE ( '' ) ;
#174 = DESIGN_CONTEXT ( 'detailed design', #50, 'design' ) ;
#175 = LOCAL_TIME ( 10, 55, 43.00000000000000000, #79 ) ;
ENDSEC;
END-ISO-10303-21;
