ISO-10303-21;
HEADER;
FILE_DESCRIPTION (( 'STEP AP203' ),
    '1' );
FILE_NAME ('Web Model 19627_21354.step',
    '2022-03-25T17:23:25',
    ( '' ),
    ( '' ),
    'SwSTEP 2.0',
    'SolidWorks 2021',
    '' );
FILE_SCHEMA (( 'CONFIG_CONTROL_DESIGN' ));
ENDSEC;

DATA;
#1 = DIRECTION ( 'NONE',  ( 1.000000000000000000, 0.000000000000000000, 0.000000000000000000 ) ) ;
#2 = CC_DESIGN_SECURITY_CLASSIFICATION ( #114, ( #69 ) ) ;
#3 =( LENGTH_UNIT ( ) NAMED_UNIT ( * ) SI_UNIT ( .MILLI., .METRE. ) );
#4 = CALENDAR_DATE ( 2022, 25, 3 ) ;
#5 = AXIS2_PLACEMENT_3D ( 'NONE', #95, #70, #25 ) ;
#6 = CC_DESIGN_PERSON_AND_ORGANIZATION_ASSIGNMENT ( #169, #100, ( #26 ) ) ;
#7 = CALENDAR_DATE ( 2022, 25, 3 ) ;
#8 = APPROVAL_ROLE ( '' ) ;
#9 = CIRCLE ( 'NONE', #110, 38.10000000000000142 ) ;
#10 = AXIS2_PLACEMENT_3D ( 'NONE', #45, #121, #153 ) ;
#11 = ORIENTED_EDGE ( 'NONE', *, *, #171, .F. ) ;
#12 =( NAMED_UNIT ( * ) SI_UNIT ( $, .STERADIAN. ) SOLID_ANGLE_UNIT ( ) );
#13 = PRODUCT_DEFINITION_SHAPE ( 'NONE', 'NONE',  #122 ) ;
#14 = LOCAL_TIME ( 13, 23, 25.00000000000000000, #126 ) ;
#15 = CARTESIAN_POINT ( 'NONE',  ( 0.000000000000000000, 0.000000000000000000, 1.520000000000000018 ) ) ;
#16 = CARTESIAN_POINT ( 'NONE',  ( 0.000000000000000000, 0.000000000000000000, 1.520000000000000018 ) ) ;
#17 = CIRCLE ( 'NONE', #84, 38.10000000000000142 ) ;
#18 = PERSON_AND_ORGANIZATION ( #102, #133 ) ;
#19 = CALENDAR_DATE ( 2022, 25, 3 ) ;
#20 = PERSON_AND_ORGANIZATION ( #102, #133 ) ;
#21 = APPROVAL ( #62, 'UNSPECIFIED' ) ;
#22 = CIRCLE ( 'NONE', #61, 38.10000000000000142 ) ;
#23 = ORIENTED_EDGE ( 'NONE', *, *, #47, .T. ) ;
#24 = DIRECTION ( 'NONE',  ( -1.000000000000000000, 0.000000000000000000, 0.000000000000000000 ) ) ;
#25 = DIRECTION ( 'NONE',  ( 1.000000000000000000, 0.000000000000000000, -0.000000000000000000 ) ) ;
#26 = PRODUCT ( 'Web Model 19627_21354', 'Web Model 19627_21354', '', ( #168 ) ) ;
#27 = APPROVAL_PERSON_ORGANIZATION ( #18, #136, #8 ) ;
#28 = DIRECTION ( 'NONE',  ( 0.000000000000000000, 0.000000000000000000, 1.000000000000000000 ) ) ;
#29 = PLANE ( 'NONE',  #10 ) ;
#30 = CARTESIAN_POINT ( 'NONE',  ( 0.000000000000000000, 0.000000000000000000, 0.000000000000000000 ) ) ;
#31 = AXIS2_PLACEMENT_3D ( 'NONE', #83, #135, #24 ) ;
#32 = SHAPE_DEFINITION_REPRESENTATION ( #13, #119 ) ;
#33 = PERSON_AND_ORGANIZATION ( #102, #133 ) ;
#34 = CALENDAR_DATE ( 2022, 25, 3 ) ;
#35 = PERSON_AND_ORGANIZATION_ROLE ( 'creator' ) ;
#36 =( GEOMETRIC_REPRESENTATION_CONTEXT ( 3 ) GLOBAL_UNCERTAINTY_ASSIGNED_CONTEXT ( ( #50 ) ) GLOBAL_UNIT_ASSIGNED_CONTEXT ( ( #3, #124, #12 ) ) REPRESENTATION_CONTEXT ( 'NONE', 'WORKASPACE' ) );
#37 = VECTOR ( 'NONE', #152, 1000.000000000000000 ) ;
#38 = ORIENTED_EDGE ( 'NONE', *, *, #171, .T. ) ;
#39 = CC_DESIGN_DATE_AND_TIME_ASSIGNMENT ( #72, #76, ( #114 ) ) ;
#40 = CARTESIAN_POINT ( 'NONE',  ( 0.000000000000000000, 0.000000000000000000, 0.000000000000000000 ) ) ;
#41 = CARTESIAN_POINT ( 'NONE',  ( -38.10000000000000142, 0.000000000000000000, 1.520000000000000018 ) ) ;
#42 = VERTEX_POINT ( 'NONE', #134 ) ;
#43 = VECTOR ( 'NONE', #55, 1000.000000000000000 ) ;
#44 = FACE_OUTER_BOUND ( 'NONE', #175, .T. ) ;
#45 = CARTESIAN_POINT ( 'NONE',  ( 0.000000000000000000, 0.000000000000000000, 1.520000000000000018 ) ) ;
#46 = APPROVAL_ROLE ( '' ) ;
#47 = EDGE_CURVE ( 'NONE', #92, #49, #22, .T. ) ;
#48 = APPROVAL_ROLE ( '' ) ;
#49 = VERTEX_POINT ( 'NONE', #123 ) ;
#50 = UNCERTAINTY_MEASURE_WITH_UNIT (LENGTH_MEASURE( 1.000000000000000082E-05 ), #3, 'distance_accuracy_value', 'NONE');
#51 = AXIS2_PLACEMENT_3D ( 'NONE', #15, #165, #56 ) ;
#52 = EDGE_LOOP ( 'NONE', ( #147, #38 ) ) ;
#53 = EDGE_CURVE ( 'NONE', #42, #49, #163, .T. ) ;
#54 = LOCAL_TIME ( 13, 23, 25.00000000000000000, #118 ) ;
#55 = DIRECTION ( 'NONE',  ( -0.000000000000000000, -0.000000000000000000, -1.000000000000000000 ) ) ;
#56 = DIRECTION ( 'NONE',  ( -1.000000000000000000, 0.000000000000000000, 0.000000000000000000 ) ) ;
#57 = FACE_OUTER_BOUND ( 'NONE', #146, .T. ) ;
#58 = DIRECTION ( 'NONE',  ( 1.000000000000000000, 0.000000000000000000, 0.000000000000000000 ) ) ;
#59 = CARTESIAN_POINT ( 'NONE',  ( 0.000000000000000000, 0.000000000000000000, 1.520000000000000018 ) ) ;
#60 = PERSON_AND_ORGANIZATION_ROLE ( 'design_supplier' ) ;
#61 = AXIS2_PLACEMENT_3D ( 'NONE', #40, #28, #68 ) ;
#62 = APPROVAL_STATUS ( 'not_yet_approved' ) ;
#63 = COORDINATED_UNIVERSAL_TIME_OFFSET ( 5, 0, .BEHIND. ) ;
#64 = DATE_AND_TIME ( #34, #14 ) ;
#65 = ORIENTED_EDGE ( 'NONE', *, *, #47, .F. ) ;
#66 = ADVANCED_FACE ( 'NONE', ( #166 ), #29, .T. ) ;
#67 = EDGE_LOOP ( 'NONE', ( #107, #109, #162, #71 ) ) ;
#68 = DIRECTION ( 'NONE',  ( 1.000000000000000000, 0.000000000000000000, 0.000000000000000000 ) ) ;
#69 = PRODUCT_DEFINITION_FORMATION_WITH_SPECIFIED_SOURCE ( 'ANY', '', #26, .NOT_KNOWN. ) ;
#70 = DIRECTION ( 'NONE',  ( 0.000000000000000000, 0.000000000000000000, 1.000000000000000000 ) ) ;
#71 = ORIENTED_EDGE ( 'NONE', *, *, #94, .T. ) ;
#72 = DATE_AND_TIME ( #7, #106 ) ;
#73 = AXIS2_PLACEMENT_3D ( 'NONE', #128, #103, #172 ) ;
#74 = APPLICATION_PROTOCOL_DEFINITION ( 'international standard', 'config_control_design', 1994, #174 ) ;
#75 = APPROVAL_STATUS ( 'not_yet_approved' ) ;
#76 = DATE_TIME_ROLE ( 'classification_date' ) ;
#77 = CC_DESIGN_PERSON_AND_ORGANIZATION_ASSIGNMENT ( #127, #60, ( #69 ) ) ;
#78 = DIRECTION ( 'NONE',  ( 0.000000000000000000, 0.000000000000000000, 1.000000000000000000 ) ) ;
#79 = APPLICATION_PROTOCOL_DEFINITION ( 'international standard', 'config_control_design', 1994, #145 ) ;
#80 = DIRECTION ( 'NONE',  ( 0.000000000000000000, 0.000000000000000000, 1.000000000000000000 ) ) ;
#81 = CYLINDRICAL_SURFACE ( 'NONE', #31, 38.10000000000000142 ) ;
#82 = EDGE_CURVE ( 'NONE', #42, #149, #17, .T. ) ;
#83 = CARTESIAN_POINT ( 'NONE',  ( 0.000000000000000000, 0.000000000000000000, 1.520000000000000018 ) ) ;
#84 = AXIS2_PLACEMENT_3D ( 'NONE', #59, #78, #1 ) ;
#85 = PERSON_AND_ORGANIZATION ( #102, #133 ) ;
#86 = APPROVAL_DATE_TIME ( #155, #160 ) ;
#87 = APPROVAL_STATUS ( 'not_yet_approved' ) ;
#88 = CC_DESIGN_APPROVAL ( #136, ( #114 ) ) ;
#89 = CC_DESIGN_PERSON_AND_ORGANIZATION_ASSIGNMENT ( #85, #35, ( #122 ) ) ;
#90 = PERSON_AND_ORGANIZATION_ROLE ( 'classification_officer' ) ;
#91 = ORIENTED_EDGE ( 'NONE', *, *, #53, .F. ) ;
#92 = VERTEX_POINT ( 'NONE', #151 ) ;
#93 = DIRECTION ( 'NONE',  ( 1.000000000000000000, 0.000000000000000000, 0.000000000000000000 ) ) ;
#94 = EDGE_CURVE ( 'NONE', #49, #92, #9, .T. ) ;
#95 = CARTESIAN_POINT ( 'NONE',  ( 0.000000000000000000, 0.000000000000000000, 0.000000000000000000 ) ) ;
#96 = FACE_OUTER_BOUND ( 'NONE', #67, .T. ) ;
#97 = CARTESIAN_POINT ( 'NONE',  ( 38.10000000000000142, 4.665904304751416087E-15, 1.520000000000000018 ) ) ;
#98 = DIRECTION ( 'NONE',  ( 0.000000000000000000, 0.000000000000000000, 1.000000000000000000 ) ) ;
#99 = PERSON_AND_ORGANIZATION_ROLE ( 'creator' ) ;
#100 = PERSON_AND_ORGANIZATION_ROLE ( 'design_owner' ) ;
#101 = DATE_AND_TIME ( #19, #150 ) ;
#102 = PERSON ( 'UNSPECIFIED', 'UNSPECIFIED', 'UNSPECIFIED', ('UNSPECIFIED'), ('UNSPECIFIED'), ('UNSPECIFIED') ) ;
#103 = DIRECTION ( 'NONE',  ( 0.000000000000000000, 0.000000000000000000, 1.000000000000000000 ) ) ;
#104 = PERSON_AND_ORGANIZATION ( #102, #133 ) ;
#105 = CC_DESIGN_DATE_AND_TIME_ASSIGNMENT ( #101, #125, ( #122 ) ) ;
#106 = LOCAL_TIME ( 13, 23, 25.00000000000000000, #142 ) ;
#107 = ORIENTED_EDGE ( 'NONE', *, *, #154, .F. ) ;
#108 = PRODUCT_RELATED_PRODUCT_CATEGORY ( 'detail', '', ( #26 ) ) ;
#109 = ORIENTED_EDGE ( 'NONE', *, *, #82, .F. ) ;
#110 = AXIS2_PLACEMENT_3D ( 'NONE', #30, #80, #93 ) ;
#111 = ORIENTED_EDGE ( 'NONE', *, *, #154, .T. ) ;
#112 = PLANE ( 'NONE',  #5 ) ;
#113 = ORIENTED_EDGE ( 'NONE', *, *, #94, .F. ) ;
#114 = SECURITY_CLASSIFICATION ( '', '', #156 ) ;
#115 = CYLINDRICAL_SURFACE ( 'NONE', #51, 38.10000000000000142 ) ;
#116 = CALENDAR_DATE ( 2022, 25, 3 ) ;
#117 = DATE_AND_TIME ( #4, #164 ) ;
#118 = COORDINATED_UNIVERSAL_TIME_OFFSET ( 5, 0, .BEHIND. ) ;
#119 = ADVANCED_BREP_SHAPE_REPRESENTATION ( 'Web Model 19627_21354', ( #131, #73 ), #36 ) ;
#120 = CC_DESIGN_APPROVAL ( #21, ( #122 ) ) ;
#121 = DIRECTION ( 'NONE',  ( 0.000000000000000000, 0.000000000000000000, 1.000000000000000000 ) ) ;
#122 = PRODUCT_DEFINITION ( 'UNKNOWN', '', #69, #159 ) ;
#123 = CARTESIAN_POINT ( 'NONE',  ( -38.10000000000000142, 0.000000000000000000, 0.000000000000000000 ) ) ;
#124 =( NAMED_UNIT ( * ) PLANE_ANGLE_UNIT ( ) SI_UNIT ( $, .RADIAN. ) );
#125 = DATE_TIME_ROLE ( 'creation_date' ) ;
#126 = COORDINATED_UNIVERSAL_TIME_OFFSET ( 5, 0, .BEHIND. ) ;
#127 = PERSON_AND_ORGANIZATION ( #102, #133 ) ;
#128 = CARTESIAN_POINT ( 'NONE',  ( 0.000000000000000000, 0.000000000000000000, 0.000000000000000000 ) ) ;
#129 = APPROVAL_PERSON_ORGANIZATION ( #20, #21, #46 ) ;
#130 = CC_DESIGN_PERSON_AND_ORGANIZATION_ASSIGNMENT ( #157, #90, ( #114 ) ) ;
#131 = MANIFOLD_SOLID_BREP ( 'Boss-Extrude1', #161 ) ;
#132 = LINE ( 'NONE', #137, #43 ) ;
#133 = ORGANIZATION ( 'UNSPECIFIED', 'UNSPECIFIED', '' ) ;
#134 = CARTESIAN_POINT ( 'NONE',  ( -38.10000000000000142, 0.000000000000000000, 1.520000000000000018 ) ) ;
#135 = DIRECTION ( 'NONE',  ( -0.000000000000000000, -0.000000000000000000, -1.000000000000000000 ) ) ;
#136 = APPROVAL ( #87, 'UNSPECIFIED' ) ;
#137 = CARTESIAN_POINT ( 'NONE',  ( 38.10000000000000142, 4.665904304751416087E-15, 1.520000000000000018 ) ) ;
#138 = APPROVAL_DATE_TIME ( #64, #136 ) ;
#139 = AXIS2_PLACEMENT_3D ( 'NONE', #16, #98, #58 ) ;
#140 = ADVANCED_FACE ( 'NONE', ( #57 ), #81, .T. ) ;
#141 = COORDINATED_UNIVERSAL_TIME_OFFSET ( 5, 0, .BEHIND. ) ;
#142 = COORDINATED_UNIVERSAL_TIME_OFFSET ( 5, 0, .BEHIND. ) ;
#143 = CC_DESIGN_APPROVAL ( #160, ( #69 ) ) ;
#144 = ADVANCED_FACE ( 'NONE', ( #96 ), #115, .T. ) ;
#145 = APPLICATION_CONTEXT ( 'configuration controlled 3d designs of mechanical parts and assemblies' ) ;
#146 = EDGE_LOOP ( 'NONE', ( #11, #111, #23, #91 ) ) ;
#147 = ORIENTED_EDGE ( 'NONE', *, *, #82, .T. ) ;
#148 = ADVANCED_FACE ( 'NONE', ( #44 ), #112, .F. ) ;
#149 = VERTEX_POINT ( 'NONE', #97 ) ;
#150 = LOCAL_TIME ( 13, 23, 25.00000000000000000, #63 ) ;
#151 = CARTESIAN_POINT ( 'NONE',  ( 38.10000000000000142, 4.665904304751416087E-15, 0.000000000000000000 ) ) ;
#152 = DIRECTION ( 'NONE',  ( -0.000000000000000000, -0.000000000000000000, -1.000000000000000000 ) ) ;
#153 = DIRECTION ( 'NONE',  ( 1.000000000000000000, 0.000000000000000000, -0.000000000000000000 ) ) ;
#154 = EDGE_CURVE ( 'NONE', #149, #92, #132, .T. ) ;
#155 = DATE_AND_TIME ( #116, #54 ) ;
#156 = SECURITY_CLASSIFICATION_LEVEL ( 'unclassified' ) ;
#157 = PERSON_AND_ORGANIZATION ( #102, #133 ) ;
#158 = CIRCLE ( 'NONE', #139, 38.10000000000000142 ) ;
#159 = DESIGN_CONTEXT ( 'detailed design', #174, 'design' ) ;
#160 = APPROVAL ( #75, 'UNSPECIFIED' ) ;
#161 = CLOSED_SHELL ( 'NONE', ( #140, #144, #66, #148 ) ) ;
#162 = ORIENTED_EDGE ( 'NONE', *, *, #53, .T. ) ;
#163 = LINE ( 'NONE', #41, #37 ) ;
#164 = LOCAL_TIME ( 13, 23, 25.00000000000000000, #141 ) ;
#165 = DIRECTION ( 'NONE',  ( -0.000000000000000000, -0.000000000000000000, -1.000000000000000000 ) ) ;
#166 = FACE_OUTER_BOUND ( 'NONE', #52, .T. ) ;
#167 = CC_DESIGN_PERSON_AND_ORGANIZATION_ASSIGNMENT ( #104, #99, ( #69 ) ) ;
#168 = MECHANICAL_CONTEXT ( 'NONE', #145, 'mechanical' ) ;
#169 = PERSON_AND_ORGANIZATION ( #102, #133 ) ;
#170 = APPROVAL_DATE_TIME ( #117, #21 ) ;
#171 = EDGE_CURVE ( 'NONE', #149, #42, #158, .T. ) ;
#172 = DIRECTION ( 'NONE',  ( 1.000000000000000000, 0.000000000000000000, 0.000000000000000000 ) ) ;
#173 = APPROVAL_PERSON_ORGANIZATION ( #33, #160, #48 ) ;
#174 = APPLICATION_CONTEXT ( 'configuration controlled 3d designs of mechanical parts and assemblies' ) ;
#175 = EDGE_LOOP ( 'NONE', ( #113, #65 ) ) ;
ENDSEC;
END-ISO-10303-21;
