ISO-10303-21;
HEADER;
FILE_DESCRIPTION (( 'STEP AP203' ),
    '1' );
FILE_NAME ('Web Model 68421.STEP',
    '2017-01-31T20:01:30',
    ( '' ),
    ( '' ),
    'SwSTEP 2.0',
    'SolidWorks 2016',
    '' );
FILE_SCHEMA (( 'CONFIG_CONTROL_DESIGN' ));
ENDSEC;

DATA;
#1 = DIRECTION ( 'NONE',  ( -1.000000000000000000, 0.0000000000000000000, 0.0000000000000000000 ) ) ;
#2 = EDGE_CURVE ( 'NONE', #112, #147, #123, .T. ) ;
#3 = CC_DESIGN_DATE_AND_TIME_ASSIGNMENT ( #57, #131, ( #172 ) ) ;
#4 = CARTESIAN_POINT ( 'NONE',  ( 12.50000000000000000, 1.530808498934191500E-015, 3.000000000000000000 ) ) ;
#5 = FACE_OUTER_BOUND ( 'NONE', #34, .T. ) ;
#6 = PLANE ( 'NONE',  #43 ) ;
#7 = APPLICATION_PROTOCOL_DEFINITION ( 'international standard', 'config_control_design', 1994, #170 ) ;
#8 = DIRECTION ( 'NONE',  ( 0.0000000000000000000, 0.0000000000000000000, 1.000000000000000000 ) ) ;
#9 = EDGE_LOOP ( 'NONE', ( #70, #74 ) ) ;
#10 = PERSON_AND_ORGANIZATION ( #151, #138 ) ;
#11 = CIRCLE ( 'NONE', #148, 12.50000000000000000 ) ;
#12 = APPROVAL ( #94, 'UNSPECIFIED' ) ;
#13 = DATE_AND_TIME ( #51, #86 ) ;
#14 = PRODUCT_DEFINITION_FORMATION_WITH_SPECIFIED_SOURCE ( 'ANY', '', #35, .NOT_KNOWN. ) ;
#15 = PERSON_AND_ORGANIZATION ( #151, #138 ) ;
#16 = DIRECTION ( 'NONE',  ( 1.000000000000000000, 0.0000000000000000000, 0.0000000000000000000 ) ) ;
#17 = DIRECTION ( 'NONE',  ( -0.0000000000000000000, -0.0000000000000000000, -1.000000000000000000 ) ) ;
#18 = DATE_AND_TIME ( #122, #115 ) ;
#19 = FACE_OUTER_BOUND ( 'NONE', #87, .T. ) ;
#20 = CARTESIAN_POINT ( 'NONE',  ( -12.50000000000000000, 0.0000000000000000000, 3.000000000000000000 ) ) ;
#21 = CARTESIAN_POINT ( 'NONE',  ( 12.50000000000000000, 1.530808498934191500E-015, 3.000000000000000000 ) ) ;
#22 = APPLICATION_CONTEXT ( 'configuration controlled 3d designs of mechanical parts and assemblies' ) ;
#23 = APPROVAL_STATUS ( 'not_yet_approved' ) ;
#24 = EDGE_CURVE ( 'NONE', #112, #96, #110, .T. ) ;
#25 = FACE_OUTER_BOUND ( 'NONE', #174, .T. ) ;
#26 = AXIS2_PLACEMENT_3D ( 'NONE', #150, #79, #92 ) ;
#27 = DATE_AND_TIME ( #104, #108 ) ;
#28 = CC_DESIGN_APPROVAL ( #12, ( #80 ) ) ;
#29 = PERSON_AND_ORGANIZATION ( #151, #138 ) ;
#30 = VECTOR ( 'NONE', #46, 1000.000000000000000 ) ;
#31 = UNCERTAINTY_MEASURE_WITH_UNIT (LENGTH_MEASURE( 1.000000000000000100E-005 ), #141, 'distance_accuracy_value', 'NONE');
#32 = COORDINATED_UNIVERSAL_TIME_OFFSET ( 5, 0, .BEHIND. ) ;
#33 = CARTESIAN_POINT ( 'NONE',  ( 0.0000000000000000000, 0.0000000000000000000, 3.000000000000000000 ) ) ;
#34 = EDGE_LOOP ( 'NONE', ( #67, #129, #41, #91 ) ) ;
#35 = PRODUCT ( 'Web Model 68421', 'Web Model 68421', '', ( #120 ) ) ;
#36 = APPROVAL ( #65, 'UNSPECIFIED' ) ;
#37 = ADVANCED_FACE ( 'NONE', ( #5 ), #145, .T. ) ;
#38 =( NAMED_UNIT ( * ) SI_UNIT ( $, .STERADIAN. ) SOLID_ANGLE_UNIT ( ) );
#39 = APPROVAL_ROLE ( '' ) ;
#40 = APPROVAL_DATE_TIME ( #18, #36 ) ;
#41 = ORIENTED_EDGE ( 'NONE', *, *, #71, .T. ) ;
#42 = CC_DESIGN_APPROVAL ( #136, ( #172 ) ) ;
#43 = AXIS2_PLACEMENT_3D ( 'NONE', #106, #8, #50 ) ;
#44 = COORDINATED_UNIVERSAL_TIME_OFFSET ( 5, 0, .BEHIND. ) ;
#45 = EDGE_CURVE ( 'NONE', #100, #96, #132, .T. ) ;
#46 = DIRECTION ( 'NONE',  ( -0.0000000000000000000, -0.0000000000000000000, -1.000000000000000000 ) ) ;
#47 = CARTESIAN_POINT ( 'NONE',  ( -12.50000000000000000, 0.0000000000000000000, 0.0000000000000000000 ) ) ;
#48 = AXIS2_PLACEMENT_3D ( 'NONE', #103, #152, #16 ) ;
#49 =( NAMED_UNIT ( * ) PLANE_ANGLE_UNIT ( ) SI_UNIT ( $, .RADIAN. ) );
#50 = DIRECTION ( 'NONE',  ( 1.000000000000000000, 0.0000000000000000000, -0.0000000000000000000 ) ) ;
#51 = CALENDAR_DATE ( 2017, 31, 1 ) ;
#52 = COORDINATED_UNIVERSAL_TIME_OFFSET ( 5, 0, .BEHIND. ) ;
#53 = ORIENTED_EDGE ( 'NONE', *, *, #109, .T. ) ;
#54 = PERSON_AND_ORGANIZATION_ROLE ( 'creator' ) ;
#55 = ORIENTED_EDGE ( 'NONE', *, *, #45, .T. ) ;
#56 = PRODUCT_DEFINITION_SHAPE ( 'NONE', 'NONE',  #172 ) ;
#57 = DATE_AND_TIME ( #156, #169 ) ;
#58 = ORIENTED_EDGE ( 'NONE', *, *, #78, .T. ) ;
#59 = DATE_AND_TIME ( #69, #99 ) ;
#60 = CIRCLE ( 'NONE', #26, 12.50000000000000000 ) ;
#61 = ADVANCED_FACE ( 'NONE', ( #25 ), #164, .T. ) ;
#62 = CARTESIAN_POINT ( 'NONE',  ( 12.50000000000000000, 1.530808498934191500E-015, 0.0000000000000000000 ) ) ;
#63 = DIRECTION ( 'NONE',  ( 1.000000000000000000, 0.0000000000000000000, 0.0000000000000000000 ) ) ;
#64 = PERSON_AND_ORGANIZATION ( #151, #138 ) ;
#65 = APPROVAL_STATUS ( 'not_yet_approved' ) ;
#66 = PERSON_AND_ORGANIZATION_ROLE ( 'classification_officer' ) ;
#67 = ORIENTED_EDGE ( 'NONE', *, *, #2, .F. ) ;
#68 = CC_DESIGN_PERSON_AND_ORGANIZATION_ASSIGNMENT ( #137, #95, ( #14 ) ) ;
#69 = CALENDAR_DATE ( 2017, 31, 1 ) ;
#70 = ORIENTED_EDGE ( 'NONE', *, *, #45, .F. ) ;
#71 = EDGE_CURVE ( 'NONE', #96, #100, #11, .T. ) ;
#72 = MANIFOLD_SOLID_BREP ( 'Extrude1', #161 ) ;
#73 = APPROVAL_PERSON_ORGANIZATION ( #10, #136, #39 ) ;
#74 = ORIENTED_EDGE ( 'NONE', *, *, #71, .F. ) ;
#75 = CARTESIAN_POINT ( 'NONE',  ( 0.0000000000000000000, 0.0000000000000000000, 0.0000000000000000000 ) ) ;
#76 = CARTESIAN_POINT ( 'NONE',  ( 0.0000000000000000000, 0.0000000000000000000, 0.0000000000000000000 ) ) ;
#77 = DIRECTION ( 'NONE',  ( 1.000000000000000000, 0.0000000000000000000, -0.0000000000000000000 ) ) ;
#78 = EDGE_CURVE ( 'NONE', #147, #112, #60, .T. ) ;
#79 = DIRECTION ( 'NONE',  ( 0.0000000000000000000, 0.0000000000000000000, 1.000000000000000000 ) ) ;
#80 = SECURITY_CLASSIFICATION ( '', '', #157 ) ;
#81 = DIRECTION ( 'NONE',  ( 0.0000000000000000000, 0.0000000000000000000, 1.000000000000000000 ) ) ;
#82 = ADVANCED_BREP_SHAPE_REPRESENTATION ( 'Web Model 68421', ( #72, #124 ), #175 ) ;
#83 = PERSON_AND_ORGANIZATION ( #151, #138 ) ;
#84 = APPLICATION_PROTOCOL_DEFINITION ( 'international standard', 'config_control_design', 1994, #22 ) ;
#85 = APPROVAL_DATE_TIME ( #59, #136 ) ;
#86 = LOCAL_TIME ( 15, 1, 30.00000000000000000, #89 ) ;
#87 = EDGE_LOOP ( 'NONE', ( #58, #107 ) ) ;
#88 = DESIGN_CONTEXT ( 'detailed design', #22, 'design' ) ;
#89 = COORDINATED_UNIVERSAL_TIME_OFFSET ( 5, 0, .BEHIND. ) ;
#90 = PERSON_AND_ORGANIZATION ( #151, #138 ) ;
#91 = ORIENTED_EDGE ( 'NONE', *, *, #109, .F. ) ;
#92 = DIRECTION ( 'NONE',  ( 1.000000000000000000, 0.0000000000000000000, 0.0000000000000000000 ) ) ;
#93 = FACE_OUTER_BOUND ( 'NONE', #9, .T. ) ;
#94 = APPROVAL_STATUS ( 'not_yet_approved' ) ;
#95 = PERSON_AND_ORGANIZATION_ROLE ( 'creator' ) ;
#96 = VERTEX_POINT ( 'NONE', #62 ) ;
#97 = DIRECTION ( 'NONE',  ( 1.000000000000000000, 0.0000000000000000000, 0.0000000000000000000 ) ) ;
#98 = APPROVAL_ROLE ( '' ) ;
#99 = LOCAL_TIME ( 15, 1, 30.00000000000000000, #134 ) ;
#100 = VERTEX_POINT ( 'NONE', #47 ) ;
#101 = APPROVAL_PERSON_ORGANIZATION ( #149, #36, #98 ) ;
#102 = DIRECTION ( 'NONE',  ( 0.0000000000000000000, 0.0000000000000000000, 1.000000000000000000 ) ) ;
#103 = CARTESIAN_POINT ( 'NONE',  ( 0.0000000000000000000, 0.0000000000000000000, 3.000000000000000000 ) ) ;
#104 = CALENDAR_DATE ( 2017, 31, 1 ) ;
#105 = PERSON_AND_ORGANIZATION_ROLE ( 'design_owner' ) ;
#106 = CARTESIAN_POINT ( 'NONE',  ( 0.0000000000000000000, 0.0000000000000000000, 0.0000000000000000000 ) ) ;
#107 = ORIENTED_EDGE ( 'NONE', *, *, #2, .T. ) ;
#108 = LOCAL_TIME ( 15, 1, 30.00000000000000000, #44 ) ;
#109 = EDGE_CURVE ( 'NONE', #147, #100, #158, .T. ) ;
#110 = LINE ( 'NONE', #4, #30 ) ;
#111 = CC_DESIGN_PERSON_AND_ORGANIZATION_ASSIGNMENT ( #83, #66, ( #80 ) ) ;
#112 = VERTEX_POINT ( 'NONE', #21 ) ;
#113 = AXIS2_PLACEMENT_3D ( 'NONE', #118, #117, #1 ) ;
#114 = ADVANCED_FACE ( 'NONE', ( #19 ), #153, .T. ) ;
#115 = LOCAL_TIME ( 15, 1, 30.00000000000000000, #52 ) ;
#116 = ORIENTED_EDGE ( 'NONE', *, *, #78, .F. ) ;
#117 = DIRECTION ( 'NONE',  ( -0.0000000000000000000, -0.0000000000000000000, -1.000000000000000000 ) ) ;
#118 = CARTESIAN_POINT ( 'NONE',  ( 0.0000000000000000000, 0.0000000000000000000, 3.000000000000000000 ) ) ;
#119 = DIRECTION ( 'NONE',  ( -0.0000000000000000000, -0.0000000000000000000, -1.000000000000000000 ) ) ;
#120 = MECHANICAL_CONTEXT ( 'NONE', #170, 'mechanical' ) ;
#121 = APPROVAL_ROLE ( '' ) ;
#122 = CALENDAR_DATE ( 2017, 31, 1 ) ;
#123 = CIRCLE ( 'NONE', #48, 12.50000000000000000 ) ;
#124 = AXIS2_PLACEMENT_3D ( 'NONE', #143, #81, #97 ) ;
#125 = DIRECTION ( 'NONE',  ( 0.0000000000000000000, 0.0000000000000000000, 1.000000000000000000 ) ) ;
#126 = ADVANCED_FACE ( 'NONE', ( #93 ), #6, .F. ) ;
#127 = CC_DESIGN_SECURITY_CLASSIFICATION ( #80, ( #14 ) ) ;
#128 = SHAPE_DEFINITION_REPRESENTATION ( #56, #82 ) ;
#129 = ORIENTED_EDGE ( 'NONE', *, *, #24, .T. ) ;
#130 = CC_DESIGN_PERSON_AND_ORGANIZATION_ASSIGNMENT ( #29, #54, ( #172 ) ) ;
#131 = DATE_TIME_ROLE ( 'creation_date' ) ;
#132 = CIRCLE ( 'NONE', #142, 12.50000000000000000 ) ;
#133 = AXIS2_PLACEMENT_3D ( 'NONE', #140, #17, #167 ) ;
#134 = COORDINATED_UNIVERSAL_TIME_OFFSET ( 5, 0, .BEHIND. ) ;
#135 = PRODUCT_RELATED_PRODUCT_CATEGORY ( 'detail', '', ( #35 ) ) ;
#136 = APPROVAL ( #23, 'UNSPECIFIED' ) ;
#137 = PERSON_AND_ORGANIZATION ( #151, #138 ) ;
#138 = ORGANIZATION ( 'UNSPECIFIED', 'UNSPECIFIED', '' ) ;
#139 = ORIENTED_EDGE ( 'NONE', *, *, #24, .F. ) ;
#140 = CARTESIAN_POINT ( 'NONE',  ( 0.0000000000000000000, 0.0000000000000000000, 3.000000000000000000 ) ) ;
#141 =( LENGTH_UNIT ( ) NAMED_UNIT ( * ) SI_UNIT ( .MILLI., .METRE. ) );
#142 = AXIS2_PLACEMENT_3D ( 'NONE', #75, #125, #63 ) ;
#143 = CARTESIAN_POINT ( 'NONE',  ( 0.0000000000000000000, 0.0000000000000000000, 0.0000000000000000000 ) ) ;
#144 = PERSON_AND_ORGANIZATION_ROLE ( 'design_supplier' ) ;
#145 = CYLINDRICAL_SURFACE ( 'NONE', #113, 12.50000000000000000 ) ;
#146 = AXIS2_PLACEMENT_3D ( 'NONE', #33, #165, #77 ) ;
#147 = VERTEX_POINT ( 'NONE', #154 ) ;
#148 = AXIS2_PLACEMENT_3D ( 'NONE', #76, #102, #163 ) ;
#149 = PERSON_AND_ORGANIZATION ( #151, #138 ) ;
#150 = CARTESIAN_POINT ( 'NONE',  ( 0.0000000000000000000, 0.0000000000000000000, 3.000000000000000000 ) ) ;
#151 = PERSON ( 'UNSPECIFIED', 'UNSPECIFIED', 'UNSPECIFIED', ('UNSPECIFIED'), ('UNSPECIFIED'), ('UNSPECIFIED') ) ;
#152 = DIRECTION ( 'NONE',  ( 0.0000000000000000000, 0.0000000000000000000, 1.000000000000000000 ) ) ;
#153 = PLANE ( 'NONE',  #146 ) ;
#154 = CARTESIAN_POINT ( 'NONE',  ( -12.50000000000000000, 0.0000000000000000000, 3.000000000000000000 ) ) ;
#155 = APPROVAL_PERSON_ORGANIZATION ( #15, #12, #121 ) ;
#156 = CALENDAR_DATE ( 2017, 31, 1 ) ;
#157 = SECURITY_CLASSIFICATION_LEVEL ( 'unclassified' ) ;
#158 = LINE ( 'NONE', #20, #159 ) ;
#159 = VECTOR ( 'NONE', #119, 1000.000000000000000 ) ;
#160 = CC_DESIGN_PERSON_AND_ORGANIZATION_ASSIGNMENT ( #64, #144, ( #14 ) ) ;
#161 = CLOSED_SHELL ( 'NONE', ( #37, #61, #114, #126 ) ) ;
#162 = CC_DESIGN_PERSON_AND_ORGANIZATION_ASSIGNMENT ( #90, #105, ( #35 ) ) ;
#163 = DIRECTION ( 'NONE',  ( 1.000000000000000000, 0.0000000000000000000, 0.0000000000000000000 ) ) ;
#164 = CYLINDRICAL_SURFACE ( 'NONE', #133, 12.50000000000000000 ) ;
#165 = DIRECTION ( 'NONE',  ( 0.0000000000000000000, 0.0000000000000000000, 1.000000000000000000 ) ) ;
#166 = CC_DESIGN_APPROVAL ( #36, ( #14 ) ) ;
#167 = DIRECTION ( 'NONE',  ( -1.000000000000000000, 0.0000000000000000000, 0.0000000000000000000 ) ) ;
#168 = APPROVAL_DATE_TIME ( #13, #12 ) ;
#169 = LOCAL_TIME ( 15, 1, 30.00000000000000000, #32 ) ;
#170 = APPLICATION_CONTEXT ( 'configuration controlled 3d designs of mechanical parts and assemblies' ) ;
#171 = DATE_TIME_ROLE ( 'classification_date' ) ;
#172 = PRODUCT_DEFINITION ( 'UNKNOWN', '', #14, #88 ) ;
#173 = CC_DESIGN_DATE_AND_TIME_ASSIGNMENT ( #27, #171, ( #80 ) ) ;
#174 = EDGE_LOOP ( 'NONE', ( #139, #116, #53, #55 ) ) ;
#175 =( GEOMETRIC_REPRESENTATION_CONTEXT ( 3 ) GLOBAL_UNCERTAINTY_ASSIGNED_CONTEXT ( ( #31 ) ) GLOBAL_UNIT_ASSIGNED_CONTEXT ( ( #141, #49, #38 ) ) REPRESENTATION_CONTEXT ( 'NONE', 'WORKASPACE' ) );
ENDSEC;
END-ISO-10303-21;
