ISO-10303-21;
HEADER;
FILE_DESCRIPTION (( 'STEP AP203' ),
    '1' );
FILE_NAME ('Web Model 43772_43774.step',
    '2018-03-12T19:20:02',
    ( '' ),
    ( '' ),
    'SwSTEP 2.0',
    'SolidWorks 2016',
    '' );
FILE_SCHEMA (( 'CONFIG_CONTROL_DESIGN' ));
ENDSEC;

DATA;
#1 = CARTESIAN_POINT ( 'NONE',  ( 3.000000000000000000, -6.349999999999997900, 6.350000000000000500 ) ) ;
#2 = DATE_TIME_ROLE ( 'creation_date' ) ;
#3 = EDGE_CURVE ( 'NONE', #19, #36, #135, .T. ) ;
#4 = APPROVAL_ROLE ( '' ) ;
#5 = VECTOR ( 'NONE', #233, 1000.000000000000000 ) ;
#6 = DATE_AND_TIME ( #62, #104 ) ;
#7 = PERSON_AND_ORGANIZATION ( #16, #138 ) ;
#8 = DATE_AND_TIME ( #153, #161 ) ;
#9 = ORIENTED_EDGE ( 'NONE', *, *, #54, .F. ) ;
#10 = ORIENTED_EDGE ( 'NONE', *, *, #188, .F. ) ;
#11 = CC_DESIGN_PERSON_AND_ORGANIZATION_ASSIGNMENT ( #71, #68, ( #222 ) ) ;
#12 = UNCERTAINTY_MEASURE_WITH_UNIT (LENGTH_MEASURE( 1.000000000000000100E-005 ), #61, 'distance_accuracy_value', 'NONE');
#13 = CARTESIAN_POINT ( 'NONE',  ( -3.000000000000000000, 6.350000000000000500, -6.349999999999999600 ) ) ;
#14 = ORIENTED_EDGE ( 'NONE', *, *, #74, .F. ) ;
#15 = DIRECTION ( 'NONE',  ( -0.0000000000000000000, -0.0000000000000000000, 1.000000000000000000 ) ) ;
#16 = PERSON ( 'UNSPECIFIED', 'UNSPECIFIED', 'UNSPECIFIED', ('UNSPECIFIED'), ('UNSPECIFIED'), ('UNSPECIFIED') ) ;
#17 = FACE_OUTER_BOUND ( 'NONE', #193, .T. ) ;
#18 = APPROVAL_PERSON_ORGANIZATION ( #48, #215, #4 ) ;
#19 = VERTEX_POINT ( 'NONE', #93 ) ;
#20 = DIRECTION ( 'NONE',  ( -0.0000000000000000000, -0.0000000000000000000, 1.000000000000000000 ) ) ;
#21 = CARTESIAN_POINT ( 'NONE',  ( 3.000000000000000000, 6.350000000000000500, -6.349999999999999600 ) ) ;
#22 = DIRECTION ( 'NONE',  ( 0.0000000000000000000, -1.000000000000000000, -2.048885995248197400E-016 ) ) ;
#23 = CC_DESIGN_PERSON_AND_ORGANIZATION_ASSIGNMENT ( #7, #84, ( #222 ) ) ;
#24 = LINE ( 'NONE', #214, #115 ) ;
#25 = CARTESIAN_POINT ( 'NONE',  ( -3.000000000000000000, 6.350000000000000500, -6.349999999999999600 ) ) ;
#26 = CC_DESIGN_SECURITY_CLASSIFICATION ( #34, ( #222 ) ) ;
#27 = ORIENTED_EDGE ( 'NONE', *, *, #73, .T. ) ;
#28 = ORIENTED_EDGE ( 'NONE', *, *, #100, .F. ) ;
#29 = APPROVAL_ROLE ( '' ) ;
#30 = ORIENTED_EDGE ( 'NONE', *, *, #190, .T. ) ;
#31 = CC_DESIGN_APPROVAL ( #215, ( #34 ) ) ;
#32 = ORIENTED_EDGE ( 'NONE', *, *, #213, .T. ) ;
#33 = LINE ( 'NONE', #13, #166 ) ;
#34 = SECURITY_CLASSIFICATION ( '', '', #87 ) ;
#35 = DIRECTION ( 'NONE',  ( -0.0000000000000000000, 1.000000000000000000, 2.048885995248197400E-016 ) ) ;
#36 = VERTEX_POINT ( 'NONE', #49 ) ;
#37 = CARTESIAN_POINT ( 'NONE',  ( 3.000000000000000000, 0.0000000000000000000, 0.0000000000000000000 ) ) ;
#38 = PRODUCT_RELATED_PRODUCT_CATEGORY ( 'detail', '', ( #80 ) ) ;
#39 = PLANE ( 'NONE',  #172 ) ;
#40 = PERSON_AND_ORGANIZATION ( #16, #138 ) ;
#41 = CARTESIAN_POINT ( 'NONE',  ( -3.000000000000000000, -6.349999999999997900, -6.350000000000002300 ) ) ;
#42 = CARTESIAN_POINT ( 'NONE',  ( 3.000000000000000000, -6.349999999999997900, 6.350000000000000500 ) ) ;
#43 = PERSON_AND_ORGANIZATION ( #16, #138 ) ;
#44 = VECTOR ( 'NONE', #140, 1000.000000000000000 ) ;
#45 = ADVANCED_FACE ( 'NONE', ( #154 ), #174, .F. ) ;
#46 = CC_DESIGN_PERSON_AND_ORGANIZATION_ASSIGNMENT ( #97, #86, ( #34 ) ) ;
#47 = EDGE_LOOP ( 'NONE', ( #155, #202, #191, #107 ) ) ;
#48 = PERSON_AND_ORGANIZATION ( #16, #138 ) ;
#49 = CARTESIAN_POINT ( 'NONE',  ( 3.000000000000000000, 6.350000000000000500, -6.349999999999999600 ) ) ;
#50 = DIRECTION ( 'NONE',  ( 1.000000000000000000, 0.0000000000000000000, 0.0000000000000000000 ) ) ;
#51 = LINE ( 'NONE', #1, #102 ) ;
#52 = VECTOR ( 'NONE', #20, 1000.000000000000000 ) ;
#53 = COORDINATED_UNIVERSAL_TIME_OFFSET ( 5, 0, .BEHIND. ) ;
#54 = EDGE_CURVE ( 'NONE', #63, #197, #111, .T. ) ;
#55 = DIRECTION ( 'NONE',  ( 0.0000000000000000000, 0.0000000000000000000, -1.000000000000000000 ) ) ;
#56 = DIRECTION ( 'NONE',  ( -1.000000000000000000, -0.0000000000000000000, -0.0000000000000000000 ) ) ;
#57 = LOCAL_TIME ( 15, 20, 2.000000000000000000, #106 ) ;
#58 = ORIENTED_EDGE ( 'NONE', *, *, #54, .T. ) ;
#59 = PLANE ( 'NONE',  #126 ) ;
#60 = CC_DESIGN_DATE_AND_TIME_ASSIGNMENT ( #142, #184, ( #34 ) ) ;
#61 =( LENGTH_UNIT ( ) NAMED_UNIT ( * ) SI_UNIT ( .MILLI., .METRE. ) );
#62 = CALENDAR_DATE ( 2018, 12, 3 ) ;
#63 = VERTEX_POINT ( 'NONE', #228 ) ;
#64 = APPLICATION_CONTEXT ( 'configuration controlled 3d designs of mechanical parts and assemblies' ) ;
#65 = LINE ( 'NONE', #180, #114 ) ;
#66 = CALENDAR_DATE ( 2018, 12, 3 ) ;
#67 = ORIENTED_EDGE ( 'NONE', *, *, #179, .F. ) ;
#68 = PERSON_AND_ORGANIZATION_ROLE ( 'creator' ) ;
#69 = PERSON_AND_ORGANIZATION ( #16, #138 ) ;
#70 = VECTOR ( 'NONE', #99, 1000.000000000000000 ) ;
#71 = PERSON_AND_ORGANIZATION ( #16, #138 ) ;
#72 = ADVANCED_FACE ( 'NONE', ( #17 ), #139, .T. ) ;
#73 = EDGE_CURVE ( 'NONE', #36, #164, #178, .T. ) ;
#74 = EDGE_CURVE ( 'NONE', #192, #218, #33, .T. ) ;
#75 = ORIENTED_EDGE ( 'NONE', *, *, #179, .T. ) ;
#76 = CARTESIAN_POINT ( 'NONE',  ( -3.000000000000000000, 6.350000000000000500, 6.349999999999997900 ) ) ;
#77 = PRODUCT_DEFINITION ( 'UNKNOWN', '', #222, #165 ) ;
#78 = DIRECTION ( 'NONE',  ( 0.0000000000000000000, 0.0000000000000000000, -1.000000000000000000 ) ) ;
#79 = LINE ( 'NONE', #21, #5 ) ;
#80 = PRODUCT ( 'Web Model 43772_43774', 'Web Model 43772_43774', '', ( #128 ) ) ;
#81 = DIRECTION ( 'NONE',  ( 0.0000000000000000000, -2.048885995248197400E-016, 1.000000000000000000 ) ) ;
#82 = DIRECTION ( 'NONE',  ( 0.0000000000000000000, 0.0000000000000000000, 1.000000000000000000 ) ) ;
#83 = ORIENTED_EDGE ( 'NONE', *, *, #144, .T. ) ;
#84 = PERSON_AND_ORGANIZATION_ROLE ( 'design_supplier' ) ;
#85 = ORIENTED_EDGE ( 'NONE', *, *, #227, .F. ) ;
#86 = PERSON_AND_ORGANIZATION_ROLE ( 'classification_officer' ) ;
#87 = SECURITY_CLASSIFICATION_LEVEL ( 'unclassified' ) ;
#88 = CALENDAR_DATE ( 2018, 12, 3 ) ;
#89 = ORIENTED_EDGE ( 'NONE', *, *, #144, .F. ) ;
#90 = LOCAL_TIME ( 15, 20, 2.000000000000000000, #122 ) ;
#91 = EDGE_LOOP ( 'NONE', ( #137, #28, #10, #201 ) ) ;
#92 = VECTOR ( 'NONE', #15, 1000.000000000000000 ) ;
#93 = CARTESIAN_POINT ( 'NONE',  ( 3.000000000000000000, -6.349999999999997900, -6.350000000000002300 ) ) ;
#94 = PERSON_AND_ORGANIZATION ( #16, #138 ) ;
#95 = APPLICATION_PROTOCOL_DEFINITION ( 'international standard', 'config_control_design', 1994, #64 ) ;
#96 = CARTESIAN_POINT ( 'NONE',  ( -3.000000000000000000, -6.349999999999997900, 6.350000000000000500 ) ) ;
#97 = PERSON_AND_ORGANIZATION ( #16, #138 ) ;
#98 = VERTEX_POINT ( 'NONE', #212 ) ;
#99 = DIRECTION ( 'NONE',  ( 0.0000000000000000000, -1.000000000000000000, 2.048885995248197400E-016 ) ) ;
#100 = EDGE_CURVE ( 'NONE', #19, #192, #230, .T. ) ;
#101 = ORIENTED_EDGE ( 'NONE', *, *, #3, .T. ) ;
#102 = VECTOR ( 'NONE', #216, 1000.000000000000000 ) ;
#103 = CC_DESIGN_APPROVAL ( #234, ( #222 ) ) ;
#104 = LOCAL_TIME ( 15, 20, 2.000000000000000000, #121 ) ;
#105 = LINE ( 'NONE', #198, #70 ) ;
#106 = COORDINATED_UNIVERSAL_TIME_OFFSET ( 5, 0, .BEHIND. ) ;
#107 = ORIENTED_EDGE ( 'NONE', *, *, #100, .T. ) ;
#108 = AXIS2_PLACEMENT_3D ( 'NONE', #37, #158, #55 ) ;
#109 = APPROVAL_DATE_TIME ( #169, #215 ) ;
#110 = CARTESIAN_POINT ( 'NONE',  ( 3.000000000000000000, 6.350000000000000500, 6.349999999999997900 ) ) ;
#111 = LINE ( 'NONE', #76, #118 ) ;
#112 = CARTESIAN_POINT ( 'NONE',  ( -3.000000000000000000, 6.350000000000000500, 6.349999999999997900 ) ) ;
#113 = CARTESIAN_POINT ( 'NONE',  ( 3.000000000000000000, -6.349999999999997900, 6.350000000000000500 ) ) ;
#114 = VECTOR ( 'NONE', #56, 1000.000000000000000 ) ;
#115 = VECTOR ( 'NONE', #78, 1000.000000000000000 ) ;
#116 = ORIENTED_EDGE ( 'NONE', *, *, #188, .T. ) ;
#117 = CARTESIAN_POINT ( 'NONE',  ( 3.000000000000000000, 6.350000000000000500, 6.349999999999997900 ) ) ;
#118 = VECTOR ( 'NONE', #195, 1000.000000000000000 ) ;
#119 = AXIS2_PLACEMENT_3D ( 'NONE', #177, #81, #22 ) ;
#120 = ADVANCED_FACE ( 'NONE', ( #194 ), #59, .F. ) ;
#121 = COORDINATED_UNIVERSAL_TIME_OFFSET ( 5, 0, .BEHIND. ) ;
#122 = COORDINATED_UNIVERSAL_TIME_OFFSET ( 5, 0, .BEHIND. ) ;
#123 = PRODUCT_DEFINITION_SHAPE ( 'NONE', 'NONE',  #77 ) ;
#124 = CARTESIAN_POINT ( 'NONE',  ( 3.000000000000000000, 6.350000000000000500, 6.349999999999997900 ) ) ;
#125 = DIRECTION ( 'NONE',  ( -1.000000000000000000, -0.0000000000000000000, -0.0000000000000000000 ) ) ;
#126 = AXIS2_PLACEMENT_3D ( 'NONE', #110, #145, #141 ) ;
#127 = DIRECTION ( 'NONE',  ( 1.000000000000000000, 0.0000000000000000000, 0.0000000000000000000 ) ) ;
#128 = MECHANICAL_CONTEXT ( 'NONE', #64, 'mechanical' ) ;
#129 = DIRECTION ( 'NONE',  ( 0.0000000000000000000, 1.000000000000000000, -2.048885995248197400E-016 ) ) ;
#130 = VECTOR ( 'NONE', #125, 1000.000000000000000 ) ;
#131 = DIRECTION ( 'NONE',  ( -0.0000000000000000000, 1.000000000000000000, 0.0000000000000000000 ) ) ;
#132 = APPROVAL_STATUS ( 'not_yet_approved' ) ;
#133 = EDGE_CURVE ( 'NONE', #197, #192, #24, .T. ) ;
#134 = EDGE_LOOP ( 'NONE', ( #9, #67, #14, #203 ) ) ;
#135 = LINE ( 'NONE', #231, #44 ) ;
#136 = EDGE_LOOP ( 'NONE', ( #58, #85, #89, #30 ) ) ;
#137 = ORIENTED_EDGE ( 'NONE', *, *, #133, .T. ) ;
#138 = ORGANIZATION ( 'UNSPECIFIED', 'UNSPECIFIED', '' ) ;
#139 = PLANE ( 'NONE',  #108 ) ;
#140 = DIRECTION ( 'NONE',  ( -0.0000000000000000000, 1.000000000000000000, 2.048885995248197400E-016 ) ) ;
#141 = DIRECTION ( 'NONE',  ( 0.0000000000000000000, -0.0000000000000000000, -1.000000000000000000 ) ) ;
#142 = DATE_AND_TIME ( #185, #57 ) ;
#143 =( NAMED_UNIT ( * ) PLANE_ANGLE_UNIT ( ) SI_UNIT ( $, .RADIAN. ) );
#144 = EDGE_CURVE ( 'NONE', #164, #98, #105, .T. ) ;
#145 = DIRECTION ( 'NONE',  ( 0.0000000000000000000, -1.000000000000000000, 0.0000000000000000000 ) ) ;
#146 = DIRECTION ( 'NONE',  ( 0.0000000000000000000, -0.0000000000000000000, 1.000000000000000000 ) ) ;
#147 =( NAMED_UNIT ( * ) SI_UNIT ( $, .STERADIAN. ) SOLID_ANGLE_UNIT ( ) );
#148 = VECTOR ( 'NONE', #163, 1000.000000000000000 ) ;
#149 = APPROVAL_ROLE ( '' ) ;
#150 = APPLICATION_CONTEXT ( 'configuration controlled 3d designs of mechanical parts and assemblies' ) ;
#151 = ADVANCED_FACE ( 'NONE', ( #200 ), #237, .F. ) ;
#152 = CC_DESIGN_DATE_AND_TIME_ASSIGNMENT ( #8, #2, ( #77 ) ) ;
#153 = CALENDAR_DATE ( 2018, 12, 3 ) ;
#154 = FACE_OUTER_BOUND ( 'NONE', #134, .T. ) ;
#155 = ORIENTED_EDGE ( 'NONE', *, *, #74, .T. ) ;
#156 = AXIS2_PLACEMENT_3D ( 'NONE', #113, #131, #146 ) ;
#157 = CARTESIAN_POINT ( 'NONE',  ( 3.000000000000000000, -6.349999999999997900, -6.350000000000002300 ) ) ;
#158 = DIRECTION ( 'NONE',  ( 1.000000000000000000, 0.0000000000000000000, 0.0000000000000000000 ) ) ;
#159 = CLOSED_SHELL ( 'NONE', ( #186, #226, #151, #120, #72, #45 ) ) ;
#160 = PERSON_AND_ORGANIZATION_ROLE ( 'design_owner' ) ;
#161 = LOCAL_TIME ( 15, 20, 2.000000000000000000, #210 ) ;
#162 = LINE ( 'NONE', #112, #52 ) ;
#163 = DIRECTION ( 'NONE',  ( -1.000000000000000000, -0.0000000000000000000, -0.0000000000000000000 ) ) ;
#164 = VERTEX_POINT ( 'NONE', #117 ) ;
#165 = DESIGN_CONTEXT ( 'detailed design', #150, 'design' ) ;
#166 = VECTOR ( 'NONE', #35, 1000.000000000000000 ) ;
#167 = PERSON_AND_ORGANIZATION_ROLE ( 'creator' ) ;
#168 = CC_DESIGN_PERSON_AND_ORGANIZATION_ASSIGNMENT ( #43, #167, ( #77 ) ) ;
#169 = DATE_AND_TIME ( #88, #225 ) ;
#170 = ORIENTED_EDGE ( 'NONE', *, *, #73, .F. ) ;
#171 = APPROVAL_PERSON_ORGANIZATION ( #69, #234, #149 ) ;
#172 = AXIS2_PLACEMENT_3D ( 'NONE', #236, #219, #129 ) ;
#173 = ORIENTED_EDGE ( 'NONE', *, *, #190, .F. ) ;
#174 = PLANE ( 'NONE',  #175 ) ;
#175 = AXIS2_PLACEMENT_3D ( 'NONE', #232, #50, #229 ) ;
#176 = AXIS2_PLACEMENT_3D ( 'NONE', #181, #82, #127 ) ;
#177 = CARTESIAN_POINT ( 'NONE',  ( 3.000000000000000000, 6.350000000000000500, -6.349999999999999600 ) ) ;
#178 = LINE ( 'NONE', #124, #92 ) ;
#179 = EDGE_CURVE ( 'NONE', #218, #63, #162, .T. ) ;
#180 = CARTESIAN_POINT ( 'NONE',  ( 3.000000000000000000, 6.350000000000000500, 6.349999999999997900 ) ) ;
#181 = CARTESIAN_POINT ( 'NONE',  ( 0.0000000000000000000, 0.0000000000000000000, 0.0000000000000000000 ) ) ;
#182 = APPROVAL_STATUS ( 'not_yet_approved' ) ;
#183 = CC_DESIGN_PERSON_AND_ORGANIZATION_ASSIGNMENT ( #40, #160, ( #80 ) ) ;
#184 = DATE_TIME_ROLE ( 'classification_date' ) ;
#185 = CALENDAR_DATE ( 2018, 12, 3 ) ;
#186 = ADVANCED_FACE ( 'NONE', ( #206 ), #39, .F. ) ;
#187 = APPROVAL ( #132, 'UNSPECIFIED' ) ;
#188 = EDGE_CURVE ( 'NONE', #98, #19, #51, .T. ) ;
#189 = FACE_OUTER_BOUND ( 'NONE', #91, .T. ) ;
#190 = EDGE_CURVE ( 'NONE', #164, #63, #65, .T. ) ;
#191 = ORIENTED_EDGE ( 'NONE', *, *, #3, .F. ) ;
#192 = VERTEX_POINT ( 'NONE', #41 ) ;
#193 = EDGE_LOOP ( 'NONE', ( #83, #116, #101, #27 ) ) ;
#194 = FACE_OUTER_BOUND ( 'NONE', #221, .T. ) ;
#195 = DIRECTION ( 'NONE',  ( 0.0000000000000000000, -1.000000000000000000, 2.048885995248197400E-016 ) ) ;
#196 = LINE ( 'NONE', #42, #148 ) ;
#197 = VERTEX_POINT ( 'NONE', #96 ) ;
#198 = CARTESIAN_POINT ( 'NONE',  ( 3.000000000000000000, 6.350000000000000500, 6.349999999999997900 ) ) ;
#199 = PLANE ( 'NONE',  #156 ) ;
#200 = FACE_OUTER_BOUND ( 'NONE', #47, .T. ) ;
#201 = ORIENTED_EDGE ( 'NONE', *, *, #227, .T. ) ;
#202 = ORIENTED_EDGE ( 'NONE', *, *, #213, .F. ) ;
#203 = ORIENTED_EDGE ( 'NONE', *, *, #133, .F. ) ;
#204 = APPROVAL_STATUS ( 'not_yet_approved' ) ;
#205 = ADVANCED_BREP_SHAPE_REPRESENTATION ( 'Web Model 43772_43774', ( #220, #176 ), #217 ) ;
#206 = FACE_OUTER_BOUND ( 'NONE', #136, .T. ) ;
#207 = APPROVAL_DATE_TIME ( #211, #234 ) ;
#208 = SHAPE_DEFINITION_REPRESENTATION ( #123, #205 ) ;
#209 = CC_DESIGN_APPROVAL ( #187, ( #77 ) ) ;
#210 = COORDINATED_UNIVERSAL_TIME_OFFSET ( 5, 0, .BEHIND. ) ;
#211 = DATE_AND_TIME ( #66, #90 ) ;
#212 = CARTESIAN_POINT ( 'NONE',  ( 3.000000000000000000, -6.349999999999997900, 6.350000000000000500 ) ) ;
#213 = EDGE_CURVE ( 'NONE', #36, #218, #79, .T. ) ;
#214 = CARTESIAN_POINT ( 'NONE',  ( -3.000000000000000000, -6.349999999999997900, 6.350000000000000500 ) ) ;
#215 = APPROVAL ( #182, 'UNSPECIFIED' ) ;
#216 = DIRECTION ( 'NONE',  ( 0.0000000000000000000, 0.0000000000000000000, -1.000000000000000000 ) ) ;
#217 =( GEOMETRIC_REPRESENTATION_CONTEXT ( 3 ) GLOBAL_UNCERTAINTY_ASSIGNED_CONTEXT ( ( #12 ) ) GLOBAL_UNIT_ASSIGNED_CONTEXT ( ( #61, #143, #147 ) ) REPRESENTATION_CONTEXT ( 'NONE', 'WORKASPACE' ) );
#218 = VERTEX_POINT ( 'NONE', #25 ) ;
#219 = DIRECTION ( 'NONE',  ( 0.0000000000000000000, -2.048885995248197400E-016, -1.000000000000000000 ) ) ;
#220 = MANIFOLD_SOLID_BREP ( 'Boss-Extrude1', #159 ) ;
#221 = EDGE_LOOP ( 'NONE', ( #75, #173, #170, #32 ) ) ;
#222 = PRODUCT_DEFINITION_FORMATION_WITH_SPECIFIED_SOURCE ( 'ANY', '', #80, .NOT_KNOWN. ) ;
#223 = APPLICATION_PROTOCOL_DEFINITION ( 'international standard', 'config_control_design', 1994, #150 ) ;
#224 = APPROVAL_DATE_TIME ( #6, #187 ) ;
#225 = LOCAL_TIME ( 15, 20, 2.000000000000000000, #53 ) ;
#226 = ADVANCED_FACE ( 'NONE', ( #189 ), #199, .F. ) ;
#227 = EDGE_CURVE ( 'NONE', #98, #197, #196, .T. ) ;
#228 = CARTESIAN_POINT ( 'NONE',  ( -3.000000000000000000, 6.350000000000000500, 6.349999999999997900 ) ) ;
#229 = DIRECTION ( 'NONE',  ( 0.0000000000000000000, 0.0000000000000000000, -1.000000000000000000 ) ) ;
#230 = LINE ( 'NONE', #157, #130 ) ;
#231 = CARTESIAN_POINT ( 'NONE',  ( 3.000000000000000000, 6.350000000000000500, -6.349999999999999600 ) ) ;
#232 = CARTESIAN_POINT ( 'NONE',  ( -3.000000000000000000, 0.0000000000000000000, 0.0000000000000000000 ) ) ;
#233 = DIRECTION ( 'NONE',  ( -1.000000000000000000, -0.0000000000000000000, -0.0000000000000000000 ) ) ;
#234 = APPROVAL ( #204, 'UNSPECIFIED' ) ;
#235 = APPROVAL_PERSON_ORGANIZATION ( #94, #187, #29 ) ;
#236 = CARTESIAN_POINT ( 'NONE',  ( 3.000000000000000000, 6.350000000000000500, 6.349999999999997900 ) ) ;
#237 = PLANE ( 'NONE',  #119 ) ;
ENDSEC;
END-ISO-10303-21;
