ISO-10303-21;
HEADER;
FILE_DESCRIPTION (( 'STEP AP203' ),
    '1' );
FILE_NAME ('Web Model 39285_39285.step',
    '2018-10-09T13:34:05',
    ( '' ),
    ( '' ),
    'SwSTEP 2.0',
    'SolidWorks 2016',
    '' );
FILE_SCHEMA (( 'CONFIG_CONTROL_DESIGN' ));
ENDSEC;

DATA;
#1 = SHAPE_DEFINITION_REPRESENTATION ( #106, #28 ) ;
#2 = ORIENTED_EDGE ( 'NONE', *, *, #116, .T. ) ;
#3 = CC_DESIGN_DATE_AND_TIME_ASSIGNMENT ( #166, #140, ( #58 ) ) ;
#4 = MECHANICAL_CONTEXT ( 'NONE', #105, 'mechanical' ) ;
#5 = ORIENTED_EDGE ( 'NONE', *, *, #15, .F. ) ;
#6 = PRODUCT_RELATED_PRODUCT_CATEGORY ( 'detail', '', ( #35 ) ) ;
#7 = APPROVAL_PERSON_ORGANIZATION ( #163, #80, #40 ) ;
#8 = DATE_TIME_ROLE ( 'classification_date' ) ;
#9 = CC_DESIGN_APPROVAL ( #150, ( #58 ) ) ;
#10 = ORIENTED_EDGE ( 'NONE', *, *, #62, .F. ) ;
#11 = AXIS2_PLACEMENT_3D ( 'NONE', #85, #44, #128 ) ;
#12 = CARTESIAN_POINT ( 'NONE',  ( 31.75000000000000000, 3.888253587292846500E-015, 1.500000000000000000 ) ) ;
#13 = MANIFOLD_SOLID_BREP ( 'Boss-Extrude1', #172 ) ;
#14 = PERSON_AND_ORGANIZATION ( #53, #17 ) ;
#15 = EDGE_CURVE ( 'NONE', #72, #156, #104, .T. ) ;
#16 = APPROVAL_DATE_TIME ( #77, #51 ) ;
#17 = ORGANIZATION ( 'UNSPECIFIED', 'UNSPECIFIED', '' ) ;
#18 =( NAMED_UNIT ( * ) PLANE_ANGLE_UNIT ( ) SI_UNIT ( $, .RADIAN. ) );
#19 = PERSON_AND_ORGANIZATION ( #53, #17 ) ;
#20 = APPLICATION_PROTOCOL_DEFINITION ( 'international standard', 'config_control_design', 1994, #105 ) ;
#21 = DIRECTION ( 'NONE',  ( 1.000000000000000000, 0.0000000000000000000, 0.0000000000000000000 ) ) ;
#22 = APPROVAL_ROLE ( '' ) ;
#23 = PERSON_AND_ORGANIZATION ( #53, #17 ) ;
#24 = AXIS2_PLACEMENT_3D ( 'NONE', #42, #71, #144 ) ;
#25 = FACE_OUTER_BOUND ( 'NONE', #139, .T. ) ;
#26 = AXIS2_PLACEMENT_3D ( 'NONE', #57, #174, #29 ) ;
#27 = DIRECTION ( 'NONE',  ( 1.000000000000000000, 0.0000000000000000000, 0.0000000000000000000 ) ) ;
#28 = ADVANCED_BREP_SHAPE_REPRESENTATION ( 'Web Model 39285_39285', ( #13, #37 ), #36 ) ;
#29 = DIRECTION ( 'NONE',  ( 1.000000000000000000, 0.0000000000000000000, 0.0000000000000000000 ) ) ;
#30 = PRODUCT_DEFINITION_FORMATION_WITH_SPECIFIED_SOURCE ( 'ANY', '', #35, .NOT_KNOWN. ) ;
#31 = CARTESIAN_POINT ( 'NONE',  ( -31.75000000000000000, 0.0000000000000000000, 1.500000000000000000 ) ) ;
#32 = ORIENTED_EDGE ( 'NONE', *, *, #130, .T. ) ;
#33 = APPROVAL_PERSON_ORGANIZATION ( #23, #51, #22 ) ;
#34 = AXIS2_PLACEMENT_3D ( 'NONE', #83, #173, #70 ) ;
#35 = PRODUCT ( 'Web Model 39285_39285', 'Web Model 39285_39285', '', ( #4 ) ) ;
#36 =( GEOMETRIC_REPRESENTATION_CONTEXT ( 3 ) GLOBAL_UNCERTAINTY_ASSIGNED_CONTEXT ( ( #157 ) ) GLOBAL_UNIT_ASSIGNED_CONTEXT ( ( #87, #18, #169 ) ) REPRESENTATION_CONTEXT ( 'NONE', 'WORKASPACE' ) );
#37 = AXIS2_PLACEMENT_3D ( 'NONE', #74, #167, #21 ) ;
#38 = ORIENTED_EDGE ( 'NONE', *, *, #135, .T. ) ;
#39 = EDGE_LOOP ( 'NONE', ( #5, #101, #2, #102 ) ) ;
#40 = APPROVAL_ROLE ( '' ) ;
#41 = CARTESIAN_POINT ( 'NONE',  ( 31.75000000000000000, 3.888253587292846500E-015, -1.500000000000000000 ) ) ;
#42 = CARTESIAN_POINT ( 'NONE',  ( 0.0000000000000000000, 0.0000000000000000000, 1.500000000000000000 ) ) ;
#43 = LINE ( 'NONE', #12, #88 ) ;
#44 = DIRECTION ( 'NONE',  ( 0.0000000000000000000, 0.0000000000000000000, 1.000000000000000000 ) ) ;
#45 = CC_DESIGN_APPROVAL ( #80, ( #66 ) ) ;
#46 = DIRECTION ( 'NONE',  ( -0.0000000000000000000, -0.0000000000000000000, -1.000000000000000000 ) ) ;
#47 = AXIS2_PLACEMENT_3D ( 'NONE', #162, #46, #124 ) ;
#48 = DATE_AND_TIME ( #133, #170 ) ;
#49 = ORIENTED_EDGE ( 'NONE', *, *, #116, .F. ) ;
#50 = ADVANCED_FACE ( 'NONE', ( #96 ), #113, .T. ) ;
#51 = APPROVAL ( #138, 'UNSPECIFIED' ) ;
#52 = CALENDAR_DATE ( 2018, 9, 10 ) ;
#53 = PERSON ( 'UNSPECIFIED', 'UNSPECIFIED', 'UNSPECIFIED', ('UNSPECIFIED'), ('UNSPECIFIED'), ('UNSPECIFIED') ) ;
#54 = PERSON_AND_ORGANIZATION_ROLE ( 'design_owner' ) ;
#55 = APPROVAL_DATE_TIME ( #48, #80 ) ;
#56 = ORIENTED_EDGE ( 'NONE', *, *, #15, .T. ) ;
#57 = CARTESIAN_POINT ( 'NONE',  ( 0.0000000000000000000, 0.0000000000000000000, -1.500000000000000000 ) ) ;
#58 = PRODUCT_DEFINITION ( 'UNKNOWN', '', #30, #142 ) ;
#59 = ADVANCED_FACE ( 'NONE', ( #145 ), #81, .F. ) ;
#60 = COORDINATED_UNIVERSAL_TIME_OFFSET ( 5, 0, .BEHIND. ) ;
#61 = CALENDAR_DATE ( 2018, 9, 10 ) ;
#62 = EDGE_CURVE ( 'NONE', #72, #111, #43, .T. ) ;
#63 = APPROVAL_DATE_TIME ( #125, #150 ) ;
#64 = CIRCLE ( 'NONE', #34, 31.75000000000000000 ) ;
#65 = CC_DESIGN_APPROVAL ( #51, ( #30 ) ) ;
#66 = SECURITY_CLASSIFICATION ( '', '', #92 ) ;
#67 = PERSON_AND_ORGANIZATION_ROLE ( 'creator' ) ;
#68 = PERSON_AND_ORGANIZATION ( #53, #17 ) ;
#69 = PLANE ( 'NONE',  #11 ) ;
#70 = DIRECTION ( 'NONE',  ( 1.000000000000000000, 0.0000000000000000000, 0.0000000000000000000 ) ) ;
#71 = DIRECTION ( 'NONE',  ( -0.0000000000000000000, -0.0000000000000000000, -1.000000000000000000 ) ) ;
#72 = VERTEX_POINT ( 'NONE', #117 ) ;
#73 = FACE_OUTER_BOUND ( 'NONE', #175, .T. ) ;
#74 = CARTESIAN_POINT ( 'NONE',  ( 0.0000000000000000000, 0.0000000000000000000, 0.0000000000000000000 ) ) ;
#75 = CC_DESIGN_PERSON_AND_ORGANIZATION_ASSIGNMENT ( #126, #115, ( #66 ) ) ;
#76 = CC_DESIGN_PERSON_AND_ORGANIZATION_ASSIGNMENT ( #19, #67, ( #30 ) ) ;
#77 = DATE_AND_TIME ( #95, #121 ) ;
#78 = LOCAL_TIME ( 9, 34, 5.000000000000000000, #131 ) ;
#79 = APPROVAL_ROLE ( '' ) ;
#80 = APPROVAL ( #141, 'UNSPECIFIED' ) ;
#81 = PLANE ( 'NONE',  #165 ) ;
#82 = VECTOR ( 'NONE', #86, 1000.000000000000000 ) ;
#83 = CARTESIAN_POINT ( 'NONE',  ( 0.0000000000000000000, 0.0000000000000000000, 1.500000000000000000 ) ) ;
#84 = CC_DESIGN_PERSON_AND_ORGANIZATION_ASSIGNMENT ( #68, #158, ( #30 ) ) ;
#85 = CARTESIAN_POINT ( 'NONE',  ( 0.0000000000000000000, 0.0000000000000000000, 1.500000000000000000 ) ) ;
#86 = DIRECTION ( 'NONE',  ( -0.0000000000000000000, -0.0000000000000000000, -1.000000000000000000 ) ) ;
#87 =( LENGTH_UNIT ( ) NAMED_UNIT ( * ) SI_UNIT ( .MILLI., .METRE. ) );
#88 = VECTOR ( 'NONE', #99, 1000.000000000000000 ) ;
#89 = APPROVAL_PERSON_ORGANIZATION ( #160, #150, #79 ) ;
#90 = AXIS2_PLACEMENT_3D ( 'NONE', #97, #110, #27 ) ;
#91 = VERTEX_POINT ( 'NONE', #98 ) ;
#92 = SECURITY_CLASSIFICATION_LEVEL ( 'unclassified' ) ;
#93 = CC_DESIGN_PERSON_AND_ORGANIZATION_ASSIGNMENT ( #134, #171, ( #58 ) ) ;
#94 = APPROVAL_STATUS ( 'not_yet_approved' ) ;
#95 = CALENDAR_DATE ( 2018, 9, 10 ) ;
#96 = FACE_OUTER_BOUND ( 'NONE', #39, .T. ) ;
#97 = CARTESIAN_POINT ( 'NONE',  ( 0.0000000000000000000, 0.0000000000000000000, -1.500000000000000000 ) ) ;
#98 = CARTESIAN_POINT ( 'NONE',  ( -31.75000000000000000, 0.0000000000000000000, -1.500000000000000000 ) ) ;
#99 = DIRECTION ( 'NONE',  ( -0.0000000000000000000, -0.0000000000000000000, -1.000000000000000000 ) ) ;
#100 = DIRECTION ( 'NONE',  ( 1.000000000000000000, 0.0000000000000000000, -0.0000000000000000000 ) ) ;
#101 = ORIENTED_EDGE ( 'NONE', *, *, #62, .T. ) ;
#102 = ORIENTED_EDGE ( 'NONE', *, *, #135, .F. ) ;
#103 = CALENDAR_DATE ( 2018, 9, 10 ) ;
#104 = CIRCLE ( 'NONE', #154, 31.75000000000000000 ) ;
#105 = APPLICATION_CONTEXT ( 'configuration controlled 3d designs of mechanical parts and assemblies' ) ;
#106 = PRODUCT_DEFINITION_SHAPE ( 'NONE', 'NONE',  #58 ) ;
#107 = APPLICATION_PROTOCOL_DEFINITION ( 'international standard', 'config_control_design', 1994, #161 ) ;
#108 = CC_DESIGN_PERSON_AND_ORGANIZATION_ASSIGNMENT ( #14, #54, ( #35 ) ) ;
#109 = DATE_AND_TIME ( #61, #78 ) ;
#110 = DIRECTION ( 'NONE',  ( 0.0000000000000000000, 0.0000000000000000000, 1.000000000000000000 ) ) ;
#111 = VERTEX_POINT ( 'NONE', #41 ) ;
#112 = CYLINDRICAL_SURFACE ( 'NONE', #47, 31.75000000000000000 ) ;
#113 = CYLINDRICAL_SURFACE ( 'NONE', #24, 31.75000000000000000 ) ;
#114 = CC_DESIGN_DATE_AND_TIME_ASSIGNMENT ( #109, #8, ( #66 ) ) ;
#115 = PERSON_AND_ORGANIZATION_ROLE ( 'classification_officer' ) ;
#116 = EDGE_CURVE ( 'NONE', #111, #91, #136, .T. ) ;
#117 = CARTESIAN_POINT ( 'NONE',  ( 31.75000000000000000, 3.888253587292846500E-015, 1.500000000000000000 ) ) ;
#118 = CIRCLE ( 'NONE', #26, 31.75000000000000000 ) ;
#119 = DIRECTION ( 'NONE',  ( 0.0000000000000000000, 0.0000000000000000000, 1.000000000000000000 ) ) ;
#120 = CARTESIAN_POINT ( 'NONE',  ( -31.75000000000000000, 0.0000000000000000000, 1.500000000000000000 ) ) ;
#121 = LOCAL_TIME ( 9, 34, 5.000000000000000000, #60 ) ;
#122 = LINE ( 'NONE', #120, #82 ) ;
#123 = ADVANCED_FACE ( 'NONE', ( #73 ), #69, .T. ) ;
#124 = DIRECTION ( 'NONE',  ( -1.000000000000000000, 0.0000000000000000000, 0.0000000000000000000 ) ) ;
#125 = DATE_AND_TIME ( #52, #153 ) ;
#126 = PERSON_AND_ORGANIZATION ( #53, #17 ) ;
#127 = DIRECTION ( 'NONE',  ( 0.0000000000000000000, 0.0000000000000000000, 1.000000000000000000 ) ) ;
#128 = DIRECTION ( 'NONE',  ( 1.000000000000000000, 0.0000000000000000000, -0.0000000000000000000 ) ) ;
#129 = COORDINATED_UNIVERSAL_TIME_OFFSET ( 5, 0, .BEHIND. ) ;
#130 = EDGE_CURVE ( 'NONE', #156, #72, #64, .T. ) ;
#131 = COORDINATED_UNIVERSAL_TIME_OFFSET ( 5, 0, .BEHIND. ) ;
#132 = EDGE_CURVE ( 'NONE', #91, #111, #118, .T. ) ;
#133 = CALENDAR_DATE ( 2018, 9, 10 ) ;
#134 = PERSON_AND_ORGANIZATION ( #53, #17 ) ;
#135 = EDGE_CURVE ( 'NONE', #156, #91, #122, .T. ) ;
#136 = CIRCLE ( 'NONE', #90, 31.75000000000000000 ) ;
#137 = EDGE_LOOP ( 'NONE', ( #143, #49 ) ) ;
#138 = APPROVAL_STATUS ( 'not_yet_approved' ) ;
#139 = EDGE_LOOP ( 'NONE', ( #10, #149, #38, #152 ) ) ;
#140 = DATE_TIME_ROLE ( 'creation_date' ) ;
#141 = APPROVAL_STATUS ( 'not_yet_approved' ) ;
#142 = DESIGN_CONTEXT ( 'detailed design', #161, 'design' ) ;
#143 = ORIENTED_EDGE ( 'NONE', *, *, #132, .F. ) ;
#144 = DIRECTION ( 'NONE',  ( -1.000000000000000000, 0.0000000000000000000, 0.0000000000000000000 ) ) ;
#145 = FACE_OUTER_BOUND ( 'NONE', #137, .T. ) ;
#146 = CARTESIAN_POINT ( 'NONE',  ( 0.0000000000000000000, 0.0000000000000000000, -1.500000000000000000 ) ) ;
#147 = CC_DESIGN_SECURITY_CLASSIFICATION ( #66, ( #30 ) ) ;
#148 = DIRECTION ( 'NONE',  ( 1.000000000000000000, 0.0000000000000000000, 0.0000000000000000000 ) ) ;
#149 = ORIENTED_EDGE ( 'NONE', *, *, #130, .F. ) ;
#150 = APPROVAL ( #94, 'UNSPECIFIED' ) ;
#151 = ADVANCED_FACE ( 'NONE', ( #25 ), #112, .T. ) ;
#152 = ORIENTED_EDGE ( 'NONE', *, *, #132, .T. ) ;
#153 = LOCAL_TIME ( 9, 34, 5.000000000000000000, #155 ) ;
#154 = AXIS2_PLACEMENT_3D ( 'NONE', #164, #119, #148 ) ;
#155 = COORDINATED_UNIVERSAL_TIME_OFFSET ( 5, 0, .BEHIND. ) ;
#156 = VERTEX_POINT ( 'NONE', #31 ) ;
#157 = UNCERTAINTY_MEASURE_WITH_UNIT (LENGTH_MEASURE( 1.000000000000000100E-005 ), #87, 'distance_accuracy_value', 'NONE');
#158 = PERSON_AND_ORGANIZATION_ROLE ( 'design_supplier' ) ;
#159 = LOCAL_TIME ( 9, 34, 5.000000000000000000, #129 ) ;
#160 = PERSON_AND_ORGANIZATION ( #53, #17 ) ;
#161 = APPLICATION_CONTEXT ( 'configuration controlled 3d designs of mechanical parts and assemblies' ) ;
#162 = CARTESIAN_POINT ( 'NONE',  ( 0.0000000000000000000, 0.0000000000000000000, 1.500000000000000000 ) ) ;
#163 = PERSON_AND_ORGANIZATION ( #53, #17 ) ;
#164 = CARTESIAN_POINT ( 'NONE',  ( 0.0000000000000000000, 0.0000000000000000000, 1.500000000000000000 ) ) ;
#165 = AXIS2_PLACEMENT_3D ( 'NONE', #146, #127, #100 ) ;
#166 = DATE_AND_TIME ( #103, #159 ) ;
#167 = DIRECTION ( 'NONE',  ( 0.0000000000000000000, 0.0000000000000000000, 1.000000000000000000 ) ) ;
#168 = COORDINATED_UNIVERSAL_TIME_OFFSET ( 5, 0, .BEHIND. ) ;
#169 =( NAMED_UNIT ( * ) SI_UNIT ( $, .STERADIAN. ) SOLID_ANGLE_UNIT ( ) );
#170 = LOCAL_TIME ( 9, 34, 5.000000000000000000, #168 ) ;
#171 = PERSON_AND_ORGANIZATION_ROLE ( 'creator' ) ;
#172 = CLOSED_SHELL ( 'NONE', ( #50, #151, #123, #59 ) ) ;
#173 = DIRECTION ( 'NONE',  ( 0.0000000000000000000, 0.0000000000000000000, 1.000000000000000000 ) ) ;
#174 = DIRECTION ( 'NONE',  ( 0.0000000000000000000, 0.0000000000000000000, 1.000000000000000000 ) ) ;
#175 = EDGE_LOOP ( 'NONE', ( #32, #56 ) ) ;
ENDSEC;
END-ISO-10303-21;
