ISO-10303-21;
HEADER;
FILE_DESCRIPTION (( 'STEP AP203' ),
    '1' );
FILE_NAME ('Web Model 43973_63217.step',
    '2017-03-01T20:59:59',
    ( '' ),
    ( '' ),
    'SwSTEP 2.0',
    'SolidWorks 2016',
    '' );
FILE_SCHEMA (( 'CONFIG_CONTROL_DESIGN' ));
ENDSEC;

DATA;
#1 = ORIENTED_EDGE ( 'NONE', *, *, #198, .T. ) ;
#2 = EDGE_CURVE ( 'NONE', #117, #223, #98, .T. ) ;
#3 = DIRECTION ( 'NONE',  ( -0.0000000000000000000, -0.0000000000000000000, -1.000000000000000000 ) ) ;
#4 = EDGE_CURVE ( 'NONE', #19, #218, #142, .T. ) ;
#5 = ORIENTED_EDGE ( 'NONE', *, *, #33, .T. ) ;
#6 = APPROVAL ( #187, 'UNSPECIFIED' ) ;
#7 = EDGE_CURVE ( 'NONE', #203, #191, #148, .T. ) ;
#8 = APPROVAL_DATE_TIME ( #57, #6 ) ;
#9 = ORIENTED_EDGE ( 'NONE', *, *, #173, .T. ) ;
#10 = FACE_OUTER_BOUND ( 'NONE', #128, .T. ) ;
#11 = DIRECTION ( 'NONE',  ( 1.092739197465706000E-016, -1.000000000000000000, 0.0000000000000000000 ) ) ;
#12 = CARTESIAN_POINT ( 'NONE',  ( 88.89999999999999100, 63.49999999999998600, 0.0000000000000000000 ) ) ;
#13 = ADVANCED_BREP_SHAPE_REPRESENTATION ( 'Web Model 43973_63217', ( #100, #63 ), #190 ) ;
#14 = APPROVAL_PERSON_ORGANIZATION ( #64, #6, #35 ) ;
#15 = ORIENTED_EDGE ( 'NONE', *, *, #2, .T. ) ;
#16 = EDGE_CURVE ( 'NONE', #201, #19, #143, .T. ) ;
#17 = COORDINATED_UNIVERSAL_TIME_OFFSET ( 5, 0, .BEHIND. ) ;
#18 = CARTESIAN_POINT ( 'NONE',  ( -88.90000000000002000, 63.49999999999998600, 1.000000000000000000 ) ) ;
#19 = VERTEX_POINT ( 'NONE', #104 ) ;
#20 = DIRECTION ( 'NONE',  ( -0.0000000000000000000, 0.0000000000000000000, 1.000000000000000000 ) ) ;
#21 = DIRECTION ( 'NONE',  ( 1.000000000000000000, 0.0000000000000000000, 0.0000000000000000000 ) ) ;
#22 = VECTOR ( 'NONE', #99, 1000.000000000000000 ) ;
#23 = CARTESIAN_POINT ( 'NONE',  ( -88.90000000000002000, 63.49999999999998600, 0.0000000000000000000 ) ) ;
#24 = DATE_AND_TIME ( #76, #127 ) ;
#25 = EDGE_CURVE ( 'NONE', #201, #159, #232, .T. ) ;
#26 = ORIENTED_EDGE ( 'NONE', *, *, #4, .F. ) ;
#27 = AXIS2_PLACEMENT_3D ( 'NONE', #122, #65, #44 ) ;
#28 = DIRECTION ( 'NONE',  ( -1.000000000000000000, -0.0000000000000000000, -0.0000000000000000000 ) ) ;
#29 = VECTOR ( 'NONE', #154, 1000.000000000000000 ) ;
#30 = PERSON_AND_ORGANIZATION ( #216, #60 ) ;
#31 = ORIENTED_EDGE ( 'NONE', *, *, #162, .F. ) ;
#32 = DIRECTION ( 'NONE',  ( -1.000000000000000000, -0.0000000000000000000, -0.0000000000000000000 ) ) ;
#33 = EDGE_CURVE ( 'NONE', #191, #223, #43, .T. ) ;
#34 = LINE ( 'NONE', #67, #177 ) ;
#35 = APPROVAL_ROLE ( '' ) ;
#36 =( NAMED_UNIT ( * ) PLANE_ANGLE_UNIT ( ) SI_UNIT ( $, .RADIAN. ) );
#37 = DESIGN_CONTEXT ( 'detailed design', #231, 'design' ) ;
#38 = PERSON_AND_ORGANIZATION ( #216, #60 ) ;
#39 = EDGE_LOOP ( 'NONE', ( #9, #107, #31, #102 ) ) ;
#40 = CARTESIAN_POINT ( 'NONE',  ( 88.90000000000000600, -63.49999999999995700, 1.000000000000000000 ) ) ;
#41 = PRODUCT_DEFINITION ( 'UNKNOWN', '', #169, #37 ) ;
#42 = CARTESIAN_POINT ( 'NONE',  ( 0.0000000000000000000, 0.0000000000000000000, 1.000000000000000000 ) ) ;
#43 = LINE ( 'NONE', #68, #138 ) ;
#44 = DIRECTION ( 'NONE',  ( -1.000000000000000000, -3.122111992759157500E-016, 0.0000000000000000000 ) ) ;
#45 = EDGE_CURVE ( 'NONE', #159, #218, #34, .T. ) ;
#46 = COORDINATED_UNIVERSAL_TIME_OFFSET ( 5, 0, .BEHIND. ) ;
#47 = PRODUCT_DEFINITION_SHAPE ( 'NONE', 'NONE',  #41 ) ;
#48 = VECTOR ( 'NONE', #28, 1000.000000000000000 ) ;
#49 = DIRECTION ( 'NONE',  ( -0.0000000000000000000, -0.0000000000000000000, -1.000000000000000000 ) ) ;
#50 = EDGE_LOOP ( 'NONE', ( #120, #153, #164, #136 ) ) ;
#51 = PERSON_AND_ORGANIZATION_ROLE ( 'design_owner' ) ;
#52 = APPROVAL ( #188, 'UNSPECIFIED' ) ;
#53 = ADVANCED_FACE ( 'NONE', ( #183 ), #89, .F. ) ;
#54 = DATE_TIME_ROLE ( 'creation_date' ) ;
#55 = DIRECTION ( 'NONE',  ( -2.185478394931410600E-016, 1.000000000000000000, 0.0000000000000000000 ) ) ;
#56 = UNCERTAINTY_MEASURE_WITH_UNIT (LENGTH_MEASURE( 1.000000000000000100E-005 ), #219, 'distance_accuracy_value', 'NONE');
#57 = DATE_AND_TIME ( #105, #158 ) ;
#58 = ORIENTED_EDGE ( 'NONE', *, *, #16, .T. ) ;
#59 = APPROVAL_ROLE ( '' ) ;
#60 = ORGANIZATION ( 'UNSPECIFIED', 'UNSPECIFIED', '' ) ;
#61 = ORIENTED_EDGE ( 'NONE', *, *, #4, .T. ) ;
#62 = PERSON_AND_ORGANIZATION_ROLE ( 'classification_officer' ) ;
#63 = AXIS2_PLACEMENT_3D ( 'NONE', #133, #94, #182 ) ;
#64 = PERSON_AND_ORGANIZATION ( #216, #60 ) ;
#65 = DIRECTION ( 'NONE',  ( -3.122111992759157500E-016, 1.000000000000000000, 0.0000000000000000000 ) ) ;
#66 = ORIENTED_EDGE ( 'NONE', *, *, #7, .F. ) ;
#67 = CARTESIAN_POINT ( 'NONE',  ( 88.90000000000000600, -63.49999999999995700, 1.000000000000000000 ) ) ;
#68 = CARTESIAN_POINT ( 'NONE',  ( -88.90000000000002000, 63.49999999999998600, 1.000000000000000000 ) ) ;
#69 = LINE ( 'NONE', #225, #167 ) ;
#70 = DIRECTION ( 'NONE',  ( -1.092739197465705900E-016, 1.000000000000000000, -0.0000000000000000000 ) ) ;
#71 = CC_DESIGN_APPROVAL ( #52, ( #169 ) ) ;
#72 = PERSON_AND_ORGANIZATION ( #216, #60 ) ;
#73 = ORIENTED_EDGE ( 'NONE', *, *, #157, .T. ) ;
#74 = CC_DESIGN_DATE_AND_TIME_ASSIGNMENT ( #111, #236, ( #185 ) ) ;
#75 = FACE_OUTER_BOUND ( 'NONE', #112, .T. ) ;
#76 = CALENDAR_DATE ( 2017, 1, 3 ) ;
#77 = ORIENTED_EDGE ( 'NONE', *, *, #25, .F. ) ;
#78 = AXIS2_PLACEMENT_3D ( 'NONE', #18, #200, #55 ) ;
#79 = CARTESIAN_POINT ( 'NONE',  ( 88.89999999999999100, 63.49999999999998600, 1.000000000000000000 ) ) ;
#80 = LINE ( 'NONE', #12, #22 ) ;
#81 = PERSON_AND_ORGANIZATION_ROLE ( 'creator' ) ;
#82 = EDGE_CURVE ( 'NONE', #191, #201, #221, .T. ) ;
#83 = AXIS2_PLACEMENT_3D ( 'NONE', #176, #110, #137 ) ;
#84 = DATE_AND_TIME ( #135, #180 ) ;
#85 = ORIENTED_EDGE ( 'NONE', *, *, #16, .F. ) ;
#86 = CARTESIAN_POINT ( 'NONE',  ( -88.90000000000002000, 63.49999999999998600, 0.0000000000000000000 ) ) ;
#87 = CC_DESIGN_APPROVAL ( #6, ( #185 ) ) ;
#88 = VECTOR ( 'NONE', #145, 1000.000000000000000 ) ;
#89 = PLANE ( 'NONE',  #168 ) ;
#90 = CC_DESIGN_SECURITY_CLASSIFICATION ( #185, ( #169 ) ) ;
#91 = APPROVAL_DATE_TIME ( #141, #113 ) ;
#92 = CLOSED_SHELL ( 'NONE', ( #235, #193, #53, #233, #208, #108 ) ) ;
#93 = CC_DESIGN_PERSON_AND_ORGANIZATION_ASSIGNMENT ( #119, #150, ( #169 ) ) ;
#94 = DIRECTION ( 'NONE',  ( 0.0000000000000000000, 0.0000000000000000000, 1.000000000000000000 ) ) ;
#95 = VECTOR ( 'NONE', #32, 1000.000000000000000 ) ;
#96 = CARTESIAN_POINT ( 'NONE',  ( 88.89999999999999100, 63.49999999999998600, 0.0000000000000000000 ) ) ;
#97 = APPROVAL_PERSON_ORGANIZATION ( #146, #113, #59 ) ;
#98 = LINE ( 'NONE', #125, #48 ) ;
#99 = DIRECTION ( 'NONE',  ( -1.092739197465705900E-016, 1.000000000000000000, -0.0000000000000000000 ) ) ;
#100 = MANIFOLD_SOLID_BREP ( 'Boss-Extrude1', #92 ) ;
#101 = CC_DESIGN_PERSON_AND_ORGANIZATION_ASSIGNMENT ( #189, #51, ( #197 ) ) ;
#102 = ORIENTED_EDGE ( 'NONE', *, *, #45, .T. ) ;
#103 = CARTESIAN_POINT ( 'NONE',  ( -88.89999999999999100, -63.50000000000001400, 0.0000000000000000000 ) ) ;
#104 = CARTESIAN_POINT ( 'NONE',  ( -88.89999999999999100, -63.50000000000001400, 0.0000000000000000000 ) ) ;
#105 = CALENDAR_DATE ( 2017, 1, 3 ) ;
#106 = EDGE_LOOP ( 'NONE', ( #181, #156, #171, #26 ) ) ;
#107 = ORIENTED_EDGE ( 'NONE', *, *, #198, .F. ) ;
#108 = ADVANCED_FACE ( 'NONE', ( #215 ), #151, .F. ) ;
#109 = FACE_OUTER_BOUND ( 'NONE', #50, .T. ) ;
#110 = DIRECTION ( 'NONE',  ( 0.0000000000000000000, -1.000000000000000000, 0.0000000000000000000 ) ) ;
#111 = DATE_AND_TIME ( #163, #202 ) ;
#112 = EDGE_LOOP ( 'NONE', ( #73, #85, #196, #5 ) ) ;
#113 = APPROVAL ( #220, 'UNSPECIFIED' ) ;
#114 = PLANE ( 'NONE',  #210 ) ;
#115 = CARTESIAN_POINT ( 'NONE',  ( -88.89999999999999100, -63.50000000000001400, 1.000000000000000000 ) ) ;
#116 = FACE_OUTER_BOUND ( 'NONE', #212, .T. ) ;
#117 = VERTEX_POINT ( 'NONE', #96 ) ;
#118 = CC_DESIGN_PERSON_AND_ORGANIZATION_ASSIGNMENT ( #72, #62, ( #185 ) ) ;
#119 = PERSON_AND_ORGANIZATION ( #216, #60 ) ;
#120 = ORIENTED_EDGE ( 'NONE', *, *, #82, .T. ) ;
#121 = DIRECTION ( 'NONE',  ( -0.0000000000000000000, 0.0000000000000000000, 1.000000000000000000 ) ) ;
#122 = CARTESIAN_POINT ( 'NONE',  ( -88.89999999999999100, -63.50000000000001400, 1.000000000000000000 ) ) ;
#123 = DIRECTION ( 'NONE',  ( 1.000000000000000000, 0.0000000000000000000, 0.0000000000000000000 ) ) ;
#124 = LINE ( 'NONE', #152, #205 ) ;
#125 = CARTESIAN_POINT ( 'NONE',  ( -88.90000000000002000, 63.49999999999998600, 0.0000000000000000000 ) ) ;
#126 = PRODUCT_RELATED_PRODUCT_CATEGORY ( 'detail', '', ( #197 ) ) ;
#127 = LOCAL_TIME ( 15, 59, 59.00000000000000000, #174 ) ;
#128 = EDGE_LOOP ( 'NONE', ( #15, #194, #66, #1 ) ) ;
#129 = CARTESIAN_POINT ( 'NONE',  ( 0.0000000000000000000, 0.0000000000000000000, 0.0000000000000000000 ) ) ;
#130 = CC_DESIGN_PERSON_AND_ORGANIZATION_ASSIGNMENT ( #38, #81, ( #41 ) ) ;
#131 = VECTOR ( 'NONE', #147, 1000.000000000000000 ) ;
#132 = MECHANICAL_CONTEXT ( 'NONE', #149, 'mechanical' ) ;
#133 = CARTESIAN_POINT ( 'NONE',  ( 0.0000000000000000000, 0.0000000000000000000, 0.0000000000000000000 ) ) ;
#134 = CC_DESIGN_DATE_AND_TIME_ASSIGNMENT ( #84, #54, ( #41 ) ) ;
#135 = CALENDAR_DATE ( 2017, 1, 3 ) ;
#136 = ORIENTED_EDGE ( 'NONE', *, *, #7, .T. ) ;
#137 = DIRECTION ( 'NONE',  ( 0.0000000000000000000, -0.0000000000000000000, -1.000000000000000000 ) ) ;
#138 = VECTOR ( 'NONE', #49, 1000.000000000000000 ) ;
#139 = CARTESIAN_POINT ( 'NONE',  ( 88.90000000000000600, -63.49999999999995700, 0.0000000000000000000 ) ) ;
#140 = APPLICATION_PROTOCOL_DEFINITION ( 'international standard', 'config_control_design', 1994, #231 ) ;
#141 = DATE_AND_TIME ( #184, #229 ) ;
#142 = LINE ( 'NONE', #103, #186 ) ;
#143 = LINE ( 'NONE', #230, #226 ) ;
#144 = PLANE ( 'NONE',  #83 ) ;
#145 = DIRECTION ( 'NONE',  ( 1.000000000000000000, 3.122111992759157500E-016, 0.0000000000000000000 ) ) ;
#146 = PERSON_AND_ORGANIZATION ( #216, #60 ) ;
#147 = DIRECTION ( 'NONE',  ( 2.185478394931410600E-016, -1.000000000000000000, 0.0000000000000000000 ) ) ;
#148 = LINE ( 'NONE', #227, #95 ) ;
#149 = APPLICATION_CONTEXT ( 'configuration controlled 3d designs of mechanical parts and assemblies' ) ;
#150 = PERSON_AND_ORGANIZATION_ROLE ( 'design_supplier' ) ;
#151 = PLANE ( 'NONE',  #209 ) ;
#152 = CARTESIAN_POINT ( 'NONE',  ( 88.89999999999999100, 63.49999999999998600, 1.000000000000000000 ) ) ;
#153 = ORIENTED_EDGE ( 'NONE', *, *, #25, .T. ) ;
#154 = DIRECTION ( 'NONE',  ( 2.185478394931410600E-016, -1.000000000000000000, 0.0000000000000000000 ) ) ;
#155 = APPROVAL_ROLE ( '' ) ;
#156 = ORIENTED_EDGE ( 'NONE', *, *, #2, .F. ) ;
#157 = EDGE_CURVE ( 'NONE', #223, #19, #172, .T. ) ;
#158 = LOCAL_TIME ( 15, 59, 59.00000000000000000, #199 ) ;
#159 = VERTEX_POINT ( 'NONE', #40 ) ;
#160 = DIRECTION ( 'NONE',  ( -0.0000000000000000000, -0.0000000000000000000, -1.000000000000000000 ) ) ;
#161 = SHAPE_DEFINITION_REPRESENTATION ( #47, #13 ) ;
#162 = EDGE_CURVE ( 'NONE', #159, #203, #124, .T. ) ;
#163 = CALENDAR_DATE ( 2017, 1, 3 ) ;
#164 = ORIENTED_EDGE ( 'NONE', *, *, #162, .T. ) ;
#165 = CC_DESIGN_PERSON_AND_ORGANIZATION_ASSIGNMENT ( #170, #195, ( #169 ) ) ;
#166 = SECURITY_CLASSIFICATION_LEVEL ( 'unclassified' ) ;
#167 = VECTOR ( 'NONE', #3, 1000.000000000000000 ) ;
#168 = AXIS2_PLACEMENT_3D ( 'NONE', #228, #192, #11 ) ;
#169 = PRODUCT_DEFINITION_FORMATION_WITH_SPECIFIED_SOURCE ( 'ANY', '', #197, .NOT_KNOWN. ) ;
#170 = PERSON_AND_ORGANIZATION ( #216, #60 ) ;
#171 = ORIENTED_EDGE ( 'NONE', *, *, #173, .F. ) ;
#172 = LINE ( 'NONE', #23, #29 ) ;
#173 = EDGE_CURVE ( 'NONE', #218, #117, #80, .T. ) ;
#174 = COORDINATED_UNIVERSAL_TIME_OFFSET ( 5, 0, .BEHIND. ) ;
#175 = ORIENTED_EDGE ( 'NONE', *, *, #45, .F. ) ;
#176 = CARTESIAN_POINT ( 'NONE',  ( -88.90000000000002000, 63.49999999999998600, 1.000000000000000000 ) ) ;
#177 = VECTOR ( 'NONE', #179, 1000.000000000000000 ) ;
#178 = CARTESIAN_POINT ( 'NONE',  ( -88.90000000000002000, 63.49999999999998600, 1.000000000000000000 ) ) ;
#179 = DIRECTION ( 'NONE',  ( -0.0000000000000000000, -0.0000000000000000000, -1.000000000000000000 ) ) ;
#180 = LOCAL_TIME ( 15, 59, 59.00000000000000000, #222 ) ;
#181 = ORIENTED_EDGE ( 'NONE', *, *, #157, .F. ) ;
#182 = DIRECTION ( 'NONE',  ( 1.000000000000000000, 0.0000000000000000000, 0.0000000000000000000 ) ) ;
#183 = FACE_OUTER_BOUND ( 'NONE', #39, .T. ) ;
#184 = CALENDAR_DATE ( 2017, 1, 3 ) ;
#185 = SECURITY_CLASSIFICATION ( '', '', #166 ) ;
#186 = VECTOR ( 'NONE', #207, 1000.000000000000000 ) ;
#187 = APPROVAL_STATUS ( 'not_yet_approved' ) ;
#188 = APPROVAL_STATUS ( 'not_yet_approved' ) ;
#189 = PERSON_AND_ORGANIZATION ( #216, #60 ) ;
#190 =( GEOMETRIC_REPRESENTATION_CONTEXT ( 3 ) GLOBAL_UNCERTAINTY_ASSIGNED_CONTEXT ( ( #56 ) ) GLOBAL_UNIT_ASSIGNED_CONTEXT ( ( #219, #36, #234 ) ) REPRESENTATION_CONTEXT ( 'NONE', 'WORKASPACE' ) );
#191 = VERTEX_POINT ( 'NONE', #178 ) ;
#192 = DIRECTION ( 'NONE',  ( -1.000000000000000000, -1.092739197465706000E-016, 0.0000000000000000000 ) ) ;
#193 = ADVANCED_FACE ( 'NONE', ( #116 ), #237, .F. ) ;
#194 = ORIENTED_EDGE ( 'NONE', *, *, #33, .F. ) ;
#195 = PERSON_AND_ORGANIZATION_ROLE ( 'creator' ) ;
#196 = ORIENTED_EDGE ( 'NONE', *, *, #82, .F. ) ;
#197 = PRODUCT ( 'Web Model 43973_63217', 'Web Model 43973_63217', '', ( #132 ) ) ;
#198 = EDGE_CURVE ( 'NONE', #203, #117, #69, .T. ) ;
#199 = COORDINATED_UNIVERSAL_TIME_OFFSET ( 5, 0, .BEHIND. ) ;
#200 = DIRECTION ( 'NONE',  ( 1.000000000000000000, 2.185478394931410600E-016, -0.0000000000000000000 ) ) ;
#201 = VERTEX_POINT ( 'NONE', #115 ) ;
#202 = LOCAL_TIME ( 15, 59, 59.00000000000000000, #17 ) ;
#203 = VERTEX_POINT ( 'NONE', #79 ) ;
#204 = PLANE ( 'NONE',  #78 ) ;
#205 = VECTOR ( 'NONE', #70, 1000.000000000000000 ) ;
#206 = CARTESIAN_POINT ( 'NONE',  ( -88.89999999999999100, -63.50000000000001400, 1.000000000000000000 ) ) ;
#207 = DIRECTION ( 'NONE',  ( 1.000000000000000000, 3.122111992759157500E-016, 0.0000000000000000000 ) ) ;
#208 = ADVANCED_FACE ( 'NONE', ( #109 ), #114, .T. ) ;
#209 = AXIS2_PLACEMENT_3D ( 'NONE', #129, #20, #123 ) ;
#210 = AXIS2_PLACEMENT_3D ( 'NONE', #42, #121, #21 ) ;
#211 = APPROVAL_DATE_TIME ( #24, #52 ) ;
#212 = EDGE_LOOP ( 'NONE', ( #61, #175, #77, #58 ) ) ;
#213 = CARTESIAN_POINT ( 'NONE',  ( -88.90000000000002000, 63.49999999999998600, 1.000000000000000000 ) ) ;
#214 = APPLICATION_PROTOCOL_DEFINITION ( 'international standard', 'config_control_design', 1994, #149 ) ;
#215 = FACE_OUTER_BOUND ( 'NONE', #106, .T. ) ;
#216 = PERSON ( 'UNSPECIFIED', 'UNSPECIFIED', 'UNSPECIFIED', ('UNSPECIFIED'), ('UNSPECIFIED'), ('UNSPECIFIED') ) ;
#217 = APPROVAL_PERSON_ORGANIZATION ( #30, #52, #155 ) ;
#218 = VERTEX_POINT ( 'NONE', #139 ) ;
#219 =( LENGTH_UNIT ( ) NAMED_UNIT ( * ) SI_UNIT ( .MILLI., .METRE. ) );
#220 = APPROVAL_STATUS ( 'not_yet_approved' ) ;
#221 = LINE ( 'NONE', #213, #131 ) ;
#222 = COORDINATED_UNIVERSAL_TIME_OFFSET ( 5, 0, .BEHIND. ) ;
#223 = VERTEX_POINT ( 'NONE', #86 ) ;
#224 = CC_DESIGN_APPROVAL ( #113, ( #41 ) ) ;
#225 = CARTESIAN_POINT ( 'NONE',  ( 88.89999999999999100, 63.49999999999998600, 1.000000000000000000 ) ) ;
#226 = VECTOR ( 'NONE', #160, 1000.000000000000000 ) ;
#227 = CARTESIAN_POINT ( 'NONE',  ( -88.90000000000002000, 63.49999999999998600, 1.000000000000000000 ) ) ;
#228 = CARTESIAN_POINT ( 'NONE',  ( 88.89999999999999100, 63.49999999999998600, 1.000000000000000000 ) ) ;
#229 = LOCAL_TIME ( 15, 59, 59.00000000000000000, #46 ) ;
#230 = CARTESIAN_POINT ( 'NONE',  ( -88.89999999999999100, -63.50000000000001400, 1.000000000000000000 ) ) ;
#231 = APPLICATION_CONTEXT ( 'configuration controlled 3d designs of mechanical parts and assemblies' ) ;
#232 = LINE ( 'NONE', #206, #88 ) ;
#233 = ADVANCED_FACE ( 'NONE', ( #10 ), #144, .F. ) ;
#234 =( NAMED_UNIT ( * ) SI_UNIT ( $, .STERADIAN. ) SOLID_ANGLE_UNIT ( ) );
#235 = ADVANCED_FACE ( 'NONE', ( #75 ), #204, .F. ) ;
#236 = DATE_TIME_ROLE ( 'classification_date' ) ;
#237 = PLANE ( 'NONE',  #27 ) ;
ENDSEC;
END-ISO-10303-21;
