ISO-10303-21;
HEADER;
FILE_DESCRIPTION (( 'STEP AP203' ),
    '1' );
FILE_NAME ('Web Model 39232_39247.step',
    '2018-07-25T17:07:14',
    ( '' ),
    ( '' ),
    'SwSTEP 2.0',
    'SolidWorks 2016',
    '' );
FILE_SCHEMA (( 'CONFIG_CONTROL_DESIGN' ));
ENDSEC;

DATA;
#1 = CALENDAR_DATE ( 2018, 25, 7 ) ;
#2 = DIRECTION ( 'NONE',  ( 0.0000000000000000000, 0.0000000000000000000, 1.000000000000000000 ) ) ;
#3 = DIRECTION ( 'NONE',  ( -0.0000000000000000000, -0.0000000000000000000, -1.000000000000000000 ) ) ;
#4 = MECHANICAL_CONTEXT ( 'NONE', #18, 'mechanical' ) ;
#5 = CARTESIAN_POINT ( 'NONE',  ( -6.349999999999999600, 0.0000000000000000000, -1.600000000000000100 ) ) ;
#6 = AXIS2_PLACEMENT_3D ( 'NONE', #89, #2, #90 ) ;
#7 = SHAPE_DEFINITION_REPRESENTATION ( #70, #169 ) ;
#8 = COORDINATED_UNIVERSAL_TIME_OFFSET ( 5, 0, .BEHIND. ) ;
#9 = PRODUCT_DEFINITION ( 'UNKNOWN', '', #113, #101 ) ;
#10 = CARTESIAN_POINT ( 'NONE',  ( -6.349999999999999600, 0.0000000000000000000, 1.600000000000000100 ) ) ;
#11 = DIRECTION ( 'NONE',  ( -0.0000000000000000000, -0.0000000000000000000, -1.000000000000000000 ) ) ;
#12 = EDGE_LOOP ( 'NONE', ( #154, #39, #26, #81 ) ) ;
#13 = CARTESIAN_POINT ( 'NONE',  ( 0.0000000000000000000, 0.0000000000000000000, 1.600000000000000100 ) ) ;
#14 = APPROVAL ( #107, 'UNSPECIFIED' ) ;
#15 = DATE_TIME_ROLE ( 'classification_date' ) ;
#16 = FACE_OUTER_BOUND ( 'NONE', #12, .T. ) ;
#17 = MANIFOLD_SOLID_BREP ( 'Boss-Extrude1', #170 ) ;
#18 = APPLICATION_CONTEXT ( 'configuration controlled 3d designs of mechanical parts and assemblies' ) ;
#19 = CALENDAR_DATE ( 2018, 25, 7 ) ;
#20 = ORGANIZATION ( 'UNSPECIFIED', 'UNSPECIFIED', '' ) ;
#21 = UNCERTAINTY_MEASURE_WITH_UNIT (LENGTH_MEASURE( 1.000000000000000100E-005 ), #146, 'distance_accuracy_value', 'NONE');
#22 = CARTESIAN_POINT ( 'NONE',  ( 0.0000000000000000000, 0.0000000000000000000, 0.0000000000000000000 ) ) ;
#23 = APPLICATION_CONTEXT ( 'configuration controlled 3d designs of mechanical parts and assemblies' ) ;
#24 = DIRECTION ( 'NONE',  ( 1.000000000000000000, 0.0000000000000000000, 0.0000000000000000000 ) ) ;
#25 = PERSON_AND_ORGANIZATION ( #40, #20 ) ;
#26 = ORIENTED_EDGE ( 'NONE', *, *, #72, .T. ) ;
#27 =( NAMED_UNIT ( * ) SI_UNIT ( $, .STERADIAN. ) SOLID_ANGLE_UNIT ( ) );
#28 = PERSON_AND_ORGANIZATION ( #40, #20 ) ;
#29 = LINE ( 'NONE', #86, #69 ) ;
#30 = PERSON_AND_ORGANIZATION ( #40, #20 ) ;
#31 = DIRECTION ( 'NONE',  ( 1.000000000000000000, 0.0000000000000000000, -0.0000000000000000000 ) ) ;
#32 = PLANE ( 'NONE',  #96 ) ;
#33 = PLANE ( 'NONE',  #6 ) ;
#34 = PERSON_AND_ORGANIZATION_ROLE ( 'design_supplier' ) ;
#35 = APPROVAL_STATUS ( 'not_yet_approved' ) ;
#36 = EDGE_CURVE ( 'NONE', #128, #66, #149, .T. ) ;
#37 = COORDINATED_UNIVERSAL_TIME_OFFSET ( 5, 0, .BEHIND. ) ;
#38 = LOCAL_TIME ( 13, 7, 14.00000000000000000, #8 ) ;
#39 = ORIENTED_EDGE ( 'NONE', *, *, #162, .F. ) ;
#40 = PERSON ( 'UNSPECIFIED', 'UNSPECIFIED', 'UNSPECIFIED', ('UNSPECIFIED'), ('UNSPECIFIED'), ('UNSPECIFIED') ) ;
#41 = PRODUCT ( 'Web Model 39232_39247', 'Web Model 39232_39247', '', ( #4 ) ) ;
#42 = ADVANCED_FACE ( 'NONE', ( #88 ), #33, .T. ) ;
#43 = DIRECTION ( 'NONE',  ( -0.0000000000000000000, -0.0000000000000000000, -1.000000000000000000 ) ) ;
#44 = APPROVAL_PERSON_ORGANIZATION ( #103, #14, #59 ) ;
#45 = APPLICATION_PROTOCOL_DEFINITION ( 'international standard', 'config_control_design', 1994, #18 ) ;
#46 = CARTESIAN_POINT ( 'NONE',  ( 0.0000000000000000000, 0.0000000000000000000, 1.600000000000000100 ) ) ;
#47 = AXIS2_PLACEMENT_3D ( 'NONE', #129, #106, #56 ) ;
#48 = DIRECTION ( 'NONE',  ( 0.0000000000000000000, 0.0000000000000000000, 1.000000000000000000 ) ) ;
#49 = CYLINDRICAL_SURFACE ( 'NONE', #65, 6.349999999999999600 ) ;
#50 = EDGE_LOOP ( 'NONE', ( #53, #85, #137, #160 ) ) ;
#51 = EDGE_CURVE ( 'NONE', #132, #168, #151, .T. ) ;
#52 = AXIS2_PLACEMENT_3D ( 'NONE', #13, #110, #91 ) ;
#53 = ORIENTED_EDGE ( 'NONE', *, *, #36, .F. ) ;
#54 = AXIS2_PLACEMENT_3D ( 'NONE', #22, #48, #122 ) ;
#55 = APPROVAL_DATE_TIME ( #127, #14 ) ;
#56 = DIRECTION ( 'NONE',  ( 1.000000000000000000, 0.0000000000000000000, 0.0000000000000000000 ) ) ;
#57 = CARTESIAN_POINT ( 'NONE',  ( 6.349999999999999600, 7.776507174585692200E-016, 1.600000000000000100 ) ) ;
#58 = APPROVAL_PERSON_ORGANIZATION ( #100, #174, #135 ) ;
#59 = APPROVAL_ROLE ( '' ) ;
#60 = CC_DESIGN_PERSON_AND_ORGANIZATION_ASSIGNMENT ( #116, #93, ( #9 ) ) ;
#61 = APPROVAL_ROLE ( '' ) ;
#62 = APPROVAL_DATE_TIME ( #140, #123 ) ;
#63 = DATE_TIME_ROLE ( 'creation_date' ) ;
#64 = CALENDAR_DATE ( 2018, 25, 7 ) ;
#65 = AXIS2_PLACEMENT_3D ( 'NONE', #46, #3, #79 ) ;
#66 = VERTEX_POINT ( 'NONE', #10 ) ;
#67 = ADVANCED_FACE ( 'NONE', ( #131 ), #114, .T. ) ;
#68 = ADVANCED_FACE ( 'NONE', ( #153 ), #32, .F. ) ;
#69 = VECTOR ( 'NONE', #11, 1000.000000000000000 ) ;
#70 = PRODUCT_DEFINITION_SHAPE ( 'NONE', 'NONE',  #9 ) ;
#71 = CARTESIAN_POINT ( 'NONE',  ( -6.349999999999999600, 0.0000000000000000000, 1.600000000000000100 ) ) ;
#72 = EDGE_CURVE ( 'NONE', #66, #168, #73, .T. ) ;
#73 = LINE ( 'NONE', #71, #95 ) ;
#74 = DIRECTION ( 'NONE',  ( 1.000000000000000000, 0.0000000000000000000, 0.0000000000000000000 ) ) ;
#75 = AXIS2_PLACEMENT_3D ( 'NONE', #158, #43, #161 ) ;
#76 = APPLICATION_PROTOCOL_DEFINITION ( 'international standard', 'config_control_design', 1994, #23 ) ;
#77 =( NAMED_UNIT ( * ) PLANE_ANGLE_UNIT ( ) SI_UNIT ( $, .RADIAN. ) );
#78 = COORDINATED_UNIVERSAL_TIME_OFFSET ( 5, 0, .BEHIND. ) ;
#79 = DIRECTION ( 'NONE',  ( -1.000000000000000000, 0.0000000000000000000, 0.0000000000000000000 ) ) ;
#80 = PERSON_AND_ORGANIZATION ( #40, #20 ) ;
#81 = ORIENTED_EDGE ( 'NONE', *, *, #133, .T. ) ;
#82 = EDGE_CURVE ( 'NONE', #128, #132, #29, .T. ) ;
#83 = APPROVAL_PERSON_ORGANIZATION ( #30, #123, #61 ) ;
#84 = EDGE_LOOP ( 'NONE', ( #121, #97 ) ) ;
#85 = ORIENTED_EDGE ( 'NONE', *, *, #82, .T. ) ;
#86 = CARTESIAN_POINT ( 'NONE',  ( 6.349999999999999600, 7.776507174585692200E-016, 1.600000000000000100 ) ) ;
#87 = CARTESIAN_POINT ( 'NONE',  ( 0.0000000000000000000, 0.0000000000000000000, -1.600000000000000100 ) ) ;
#88 = FACE_OUTER_BOUND ( 'NONE', #172, .T. ) ;
#89 = CARTESIAN_POINT ( 'NONE',  ( 0.0000000000000000000, 0.0000000000000000000, 1.600000000000000100 ) ) ;
#90 = DIRECTION ( 'NONE',  ( 1.000000000000000000, 0.0000000000000000000, -0.0000000000000000000 ) ) ;
#91 = DIRECTION ( 'NONE',  ( 1.000000000000000000, 0.0000000000000000000, 0.0000000000000000000 ) ) ;
#92 =( GEOMETRIC_REPRESENTATION_CONTEXT ( 3 ) GLOBAL_UNCERTAINTY_ASSIGNED_CONTEXT ( ( #21 ) ) GLOBAL_UNIT_ASSIGNED_CONTEXT ( ( #146, #77, #27 ) ) REPRESENTATION_CONTEXT ( 'NONE', 'WORKASPACE' ) );
#93 = PERSON_AND_ORGANIZATION_ROLE ( 'creator' ) ;
#94 = PRODUCT_RELATED_PRODUCT_CATEGORY ( 'detail', '', ( #41 ) ) ;
#95 = VECTOR ( 'NONE', #175, 1000.000000000000000 ) ;
#96 = AXIS2_PLACEMENT_3D ( 'NONE', #87, #157, #31 ) ;
#97 = ORIENTED_EDGE ( 'NONE', *, *, #51, .F. ) ;
#98 = CC_DESIGN_APPROVAL ( #14, ( #9 ) ) ;
#99 = LOCAL_TIME ( 13, 7, 14.00000000000000000, #142 ) ;
#100 = PERSON_AND_ORGANIZATION ( #40, #20 ) ;
#101 = DESIGN_CONTEXT ( 'detailed design', #23, 'design' ) ;
#102 = CC_DESIGN_PERSON_AND_ORGANIZATION_ASSIGNMENT ( #165, #150, ( #41 ) ) ;
#103 = PERSON_AND_ORGANIZATION ( #40, #20 ) ;
#104 = CARTESIAN_POINT ( 'NONE',  ( 6.349999999999999600, 7.776507174585692200E-016, -1.600000000000000100 ) ) ;
#105 = LOCAL_TIME ( 13, 7, 14.00000000000000000, #112 ) ;
#106 = DIRECTION ( 'NONE',  ( 0.0000000000000000000, 0.0000000000000000000, 1.000000000000000000 ) ) ;
#107 = APPROVAL_STATUS ( 'not_yet_approved' ) ;
#108 = APPROVAL_STATUS ( 'not_yet_approved' ) ;
#109 = LOCAL_TIME ( 13, 7, 14.00000000000000000, #37 ) ;
#110 = DIRECTION ( 'NONE',  ( 0.0000000000000000000, 0.0000000000000000000, 1.000000000000000000 ) ) ;
#111 = CC_DESIGN_DATE_AND_TIME_ASSIGNMENT ( #159, #63, ( #9 ) ) ;
#112 = COORDINATED_UNIVERSAL_TIME_OFFSET ( 5, 0, .BEHIND. ) ;
#113 = PRODUCT_DEFINITION_FORMATION_WITH_SPECIFIED_SOURCE ( 'ANY', '', #41, .NOT_KNOWN. ) ;
#114 = CYLINDRICAL_SURFACE ( 'NONE', #75, 6.349999999999999600 ) ;
#115 = ORIENTED_EDGE ( 'NONE', *, *, #36, .T. ) ;
#116 = PERSON_AND_ORGANIZATION ( #40, #20 ) ;
#117 = CC_DESIGN_PERSON_AND_ORGANIZATION_ASSIGNMENT ( #25, #34, ( #113 ) ) ;
#118 = DIRECTION ( 'NONE',  ( 0.0000000000000000000, 0.0000000000000000000, 1.000000000000000000 ) ) ;
#119 = CARTESIAN_POINT ( 'NONE',  ( 0.0000000000000000000, 0.0000000000000000000, 1.600000000000000100 ) ) ;
#120 = LOCAL_TIME ( 13, 7, 14.00000000000000000, #78 ) ;
#121 = ORIENTED_EDGE ( 'NONE', *, *, #133, .F. ) ;
#122 = DIRECTION ( 'NONE',  ( 1.000000000000000000, 0.0000000000000000000, 0.0000000000000000000 ) ) ;
#123 = APPROVAL ( #35, 'UNSPECIFIED' ) ;
#124 = PERSON_AND_ORGANIZATION_ROLE ( 'creator' ) ;
#125 = ORIENTED_EDGE ( 'NONE', *, *, #162, .T. ) ;
#126 = AXIS2_PLACEMENT_3D ( 'NONE', #134, #147, #24 ) ;
#127 = DATE_AND_TIME ( #144, #99 ) ;
#128 = VERTEX_POINT ( 'NONE', #57 ) ;
#129 = CARTESIAN_POINT ( 'NONE',  ( 0.0000000000000000000, 0.0000000000000000000, -1.600000000000000100 ) ) ;
#130 = DATE_AND_TIME ( #152, #120 ) ;
#131 = FACE_OUTER_BOUND ( 'NONE', #50, .T. ) ;
#132 = VERTEX_POINT ( 'NONE', #104 ) ;
#133 = EDGE_CURVE ( 'NONE', #168, #132, #167, .T. ) ;
#134 = CARTESIAN_POINT ( 'NONE',  ( 0.0000000000000000000, 0.0000000000000000000, -1.600000000000000100 ) ) ;
#135 = APPROVAL_ROLE ( '' ) ;
#136 = CIRCLE ( 'NONE', #52, 6.349999999999999600 ) ;
#137 = ORIENTED_EDGE ( 'NONE', *, *, #51, .T. ) ;
#138 = DATE_AND_TIME ( #1, #38 ) ;
#139 = CC_DESIGN_APPROVAL ( #123, ( #113 ) ) ;
#140 = DATE_AND_TIME ( #64, #105 ) ;
#141 = APPROVAL_DATE_TIME ( #130, #174 ) ;
#142 = COORDINATED_UNIVERSAL_TIME_OFFSET ( 5, 0, .BEHIND. ) ;
#143 = CC_DESIGN_DATE_AND_TIME_ASSIGNMENT ( #138, #15, ( #156 ) ) ;
#144 = CALENDAR_DATE ( 2018, 25, 7 ) ;
#145 = PERSON_AND_ORGANIZATION_ROLE ( 'classification_officer' ) ;
#146 =( LENGTH_UNIT ( ) NAMED_UNIT ( * ) SI_UNIT ( .MILLI., .METRE. ) );
#147 = DIRECTION ( 'NONE',  ( 0.0000000000000000000, 0.0000000000000000000, 1.000000000000000000 ) ) ;
#148 = CC_DESIGN_PERSON_AND_ORGANIZATION_ASSIGNMENT ( #28, #124, ( #113 ) ) ;
#149 = CIRCLE ( 'NONE', #164, 6.349999999999999600 ) ;
#150 = PERSON_AND_ORGANIZATION_ROLE ( 'design_owner' ) ;
#151 = CIRCLE ( 'NONE', #47, 6.349999999999999600 ) ;
#152 = CALENDAR_DATE ( 2018, 25, 7 ) ;
#153 = FACE_OUTER_BOUND ( 'NONE', #84, .T. ) ;
#154 = ORIENTED_EDGE ( 'NONE', *, *, #82, .F. ) ;
#155 = CC_DESIGN_SECURITY_CLASSIFICATION ( #156, ( #113 ) ) ;
#156 = SECURITY_CLASSIFICATION ( '', '', #163 ) ;
#157 = DIRECTION ( 'NONE',  ( 0.0000000000000000000, 0.0000000000000000000, 1.000000000000000000 ) ) ;
#158 = CARTESIAN_POINT ( 'NONE',  ( 0.0000000000000000000, 0.0000000000000000000, 1.600000000000000100 ) ) ;
#159 = DATE_AND_TIME ( #19, #109 ) ;
#160 = ORIENTED_EDGE ( 'NONE', *, *, #72, .F. ) ;
#161 = DIRECTION ( 'NONE',  ( -1.000000000000000000, 0.0000000000000000000, 0.0000000000000000000 ) ) ;
#162 = EDGE_CURVE ( 'NONE', #66, #128, #136, .T. ) ;
#163 = SECURITY_CLASSIFICATION_LEVEL ( 'unclassified' ) ;
#164 = AXIS2_PLACEMENT_3D ( 'NONE', #119, #118, #74 ) ;
#165 = PERSON_AND_ORGANIZATION ( #40, #20 ) ;
#166 = CC_DESIGN_PERSON_AND_ORGANIZATION_ASSIGNMENT ( #80, #145, ( #156 ) ) ;
#167 = CIRCLE ( 'NONE', #126, 6.349999999999999600 ) ;
#168 = VERTEX_POINT ( 'NONE', #5 ) ;
#169 = ADVANCED_BREP_SHAPE_REPRESENTATION ( 'Web Model 39232_39247', ( #17, #54 ), #92 ) ;
#170 = CLOSED_SHELL ( 'NONE', ( #67, #173, #42, #68 ) ) ;
#171 = CC_DESIGN_APPROVAL ( #174, ( #156 ) ) ;
#172 = EDGE_LOOP ( 'NONE', ( #125, #115 ) ) ;
#173 = ADVANCED_FACE ( 'NONE', ( #16 ), #49, .T. ) ;
#174 = APPROVAL ( #108, 'UNSPECIFIED' ) ;
#175 = DIRECTION ( 'NONE',  ( -0.0000000000000000000, -0.0000000000000000000, -1.000000000000000000 ) ) ;
ENDSEC;
END-ISO-10303-21;
