ISO-10303-21;
HEADER;
FILE_DESCRIPTION (( 'STEP AP203' ),
    '1' );
FILE_NAME ('Web Model 84464_13335.step',
    '2020-11-04T13:58:21',
    ( '' ),
    ( '' ),
    'SwSTEP 2.0',
    'SolidWorks 2018',
    '' );
FILE_SCHEMA (( 'CONFIG_CONTROL_DESIGN' ));
ENDSEC;

DATA;
#1 = ORIENTED_EDGE ( 'NONE', *, *, #138, .T. ) ;
#2 = UNCERTAINTY_MEASURE_WITH_UNIT (LENGTH_MEASURE( 1.000000000000000082E-05 ), #34, 'distance_accuracy_value', 'NONE');
#3 = DIRECTION ( 'NONE',  ( 1.000000000000000000, 0.0000000000000000000, -0.0000000000000000000 ) ) ;
#4 = LINE ( 'NONE', #57, #88 ) ;
#5 = APPROVAL_STATUS ( 'not_yet_approved' ) ;
#6 = SECURITY_CLASSIFICATION ( '', '', #126 ) ;
#7 = CALENDAR_DATE ( 2020, 4, 11 ) ;
#8 = DIRECTION ( 'NONE',  ( 1.000000000000000000, 0.0000000000000000000, 0.0000000000000000000 ) ) ;
#9 = CIRCLE ( 'NONE', #139, 10.00000000000000178 ) ;
#10 = EDGE_CURVE ( 'NONE', #84, #35, #85, .T. ) ;
#11 = ORIENTED_EDGE ( 'NONE', *, *, #10, .F. ) ;
#12 = APPROVAL_DATE_TIME ( #47, #58 ) ;
#13 = DIRECTION ( 'NONE',  ( 0.0000000000000000000, 0.0000000000000000000, 1.000000000000000000 ) ) ;
#14 = CC_DESIGN_DATE_AND_TIME_ASSIGNMENT ( #168, #72, ( #6 ) ) ;
#15 = EDGE_LOOP ( 'NONE', ( #11, #53, #1, #89 ) ) ;
#16 = EDGE_CURVE ( 'NONE', #35, #84, #9, .T. ) ;
#17 = PERSON_AND_ORGANIZATION_ROLE ( 'design_owner' ) ;
#18 = CARTESIAN_POINT ( 'NONE',  ( -10.00000000000000178, 0.0000000000000000000, 2.000000000000000000 ) ) ;
#19 = APPROVAL_PERSON_ORGANIZATION ( #99, #125, #169 ) ;
#20 = DIRECTION ( 'NONE',  ( 0.0000000000000000000, 0.0000000000000000000, 1.000000000000000000 ) ) ;
#21 = PERSON_AND_ORGANIZATION_ROLE ( 'creator' ) ;
#22 = COORDINATED_UNIVERSAL_TIME_OFFSET ( 5, 0, .BEHIND. ) ;
#23 = PERSON_AND_ORGANIZATION_ROLE ( 'classification_officer' ) ;
#24 = ORIENTED_EDGE ( 'NONE', *, *, #75, .F. ) ;
#25 = CC_DESIGN_APPROVAL ( #125, ( #129 ) ) ;
#26 = ORIENTED_EDGE ( 'NONE', *, *, #36, .T. ) ;
#27 = PERSON_AND_ORGANIZATION ( #52, #175 ) ;
#28 = APPROVAL ( #5, 'UNSPECIFIED' ) ;
#29 = DATE_AND_TIME ( #174, #170 ) ;
#30 = APPLICATION_PROTOCOL_DEFINITION ( 'international standard', 'config_control_design', 1994, #97 ) ;
#31 = PLANE ( 'NONE',  #154 ) ;
#32 = DIRECTION ( 'NONE',  ( 0.0000000000000000000, 0.0000000000000000000, 1.000000000000000000 ) ) ;
#33 = CC_DESIGN_SECURITY_CLASSIFICATION ( #6, ( #129 ) ) ;
#34 =( LENGTH_UNIT ( ) NAMED_UNIT ( * ) SI_UNIT ( .MILLI., .METRE. ) );
#35 = VERTEX_POINT ( 'NONE', #91 ) ;
#36 = EDGE_CURVE ( 'NONE', #35, #94, #103, .T. ) ;
#37 = SHAPE_DEFINITION_REPRESENTATION ( #143, #119 ) ;
#38 = AXIS2_PLACEMENT_3D ( 'NONE', #107, #32, #70 ) ;
#39 = EDGE_LOOP ( 'NONE', ( #131, #48 ) ) ;
#40 = DIRECTION ( 'NONE',  ( 0.0000000000000000000, 0.0000000000000000000, 1.000000000000000000 ) ) ;
#41 = AXIS2_PLACEMENT_3D ( 'NONE', #108, #111, #123 ) ;
#42 = DIRECTION ( 'NONE',  ( 1.000000000000000000, 0.0000000000000000000, 0.0000000000000000000 ) ) ;
#43 = APPLICATION_PROTOCOL_DEFINITION ( 'international standard', 'config_control_design', 1994, #164 ) ;
#44 = CARTESIAN_POINT ( 'NONE',  ( 0.0000000000000000000, 0.0000000000000000000, 0.0000000000000000000 ) ) ;
#45 = APPROVAL_STATUS ( 'not_yet_approved' ) ;
#46 = EDGE_LOOP ( 'NONE', ( #81, #173 ) ) ;
#47 = DATE_AND_TIME ( #59, #83 ) ;
#48 = ORIENTED_EDGE ( 'NONE', *, *, #138, .F. ) ;
#49 = ORIENTED_EDGE ( 'NONE', *, *, #16, .F. ) ;
#50 = CC_DESIGN_APPROVAL ( #28, ( #146 ) ) ;
#51 = LOCAL_TIME ( 8, 58, 21.00000000000000000, #90 ) ;
#52 = PERSON ( 'UNSPECIFIED', 'UNSPECIFIED', 'UNSPECIFIED', ('UNSPECIFIED'), ('UNSPECIFIED'), ('UNSPECIFIED') ) ;
#53 = ORIENTED_EDGE ( 'NONE', *, *, #75, .T. ) ;
#54 = DIRECTION ( 'NONE',  ( 1.000000000000000000, 0.0000000000000000000, 0.0000000000000000000 ) ) ;
#55 = PERSON_AND_ORGANIZATION ( #52, #175 ) ;
#56 = CARTESIAN_POINT ( 'NONE',  ( 0.0000000000000000000, 0.0000000000000000000, 2.000000000000000000 ) ) ;
#57 = CARTESIAN_POINT ( 'NONE',  ( 10.00000000000000178, 1.224646799147353454E-15, 2.000000000000000000 ) ) ;
#58 = APPROVAL ( #45, 'UNSPECIFIED' ) ;
#59 = CALENDAR_DATE ( 2020, 4, 11 ) ;
#60 = PERSON_AND_ORGANIZATION_ROLE ( 'design_supplier' ) ;
#61 = ADVANCED_FACE ( 'NONE', ( #148 ), #153, .T. ) ;
#62 = DESIGN_CONTEXT ( 'detailed design', #97, 'design' ) ;
#63 = APPROVAL_DATE_TIME ( #157, #125 ) ;
#64 = PERSON_AND_ORGANIZATION ( #52, #175 ) ;
#65 = AXIS2_PLACEMENT_3D ( 'NONE', #118, #40, #54 ) ;
#66 = AXIS2_PLACEMENT_3D ( 'NONE', #56, #134, #113 ) ;
#67 = ORIENTED_EDGE ( 'NONE', *, *, #161, .T. ) ;
#68 = AXIS2_PLACEMENT_3D ( 'NONE', #133, #20, #105 ) ;
#69 = CARTESIAN_POINT ( 'NONE',  ( 10.00000000000000178, 1.224646799147353454E-15, 0.0000000000000000000 ) ) ;
#70 = DIRECTION ( 'NONE',  ( 1.000000000000000000, 0.0000000000000000000, -0.0000000000000000000 ) ) ;
#71 = DATE_AND_TIME ( #7, #109 ) ;
#72 = DATE_TIME_ROLE ( 'classification_date' ) ;
#73 = CALENDAR_DATE ( 2020, 4, 11 ) ;
#74 = PRODUCT_RELATED_PRODUCT_CATEGORY ( 'detail', '', ( #158 ) ) ;
#75 = EDGE_CURVE ( 'NONE', #84, #151, #4, .T. ) ;
#76 = LOCAL_TIME ( 8, 58, 21.00000000000000000, #92 ) ;
#77 = CIRCLE ( 'NONE', #68, 10.00000000000000178 ) ;
#78 = CARTESIAN_POINT ( 'NONE',  ( 0.0000000000000000000, 0.0000000000000000000, 2.000000000000000000 ) ) ;
#79 = CALENDAR_DATE ( 2020, 4, 11 ) ;
#80 = DIRECTION ( 'NONE',  ( 0.0000000000000000000, 0.0000000000000000000, 1.000000000000000000 ) ) ;
#81 = ORIENTED_EDGE ( 'NONE', *, *, #16, .T. ) ;
#82 = APPROVAL_ROLE ( '' ) ;
#83 = LOCAL_TIME ( 8, 58, 21.00000000000000000, #127 ) ;
#84 = VERTEX_POINT ( 'NONE', #144 ) ;
#85 = CIRCLE ( 'NONE', #128, 10.00000000000000178 ) ;
#86 = CC_DESIGN_PERSON_AND_ORGANIZATION_ASSIGNMENT ( #64, #17, ( #158 ) ) ;
#87 = PERSON_AND_ORGANIZATION ( #52, #175 ) ;
#88 = VECTOR ( 'NONE', #162, 1000.000000000000000 ) ;
#89 = ORIENTED_EDGE ( 'NONE', *, *, #36, .F. ) ;
#90 = COORDINATED_UNIVERSAL_TIME_OFFSET ( 5, 0, .BEHIND. ) ;
#91 = CARTESIAN_POINT ( 'NONE',  ( -10.00000000000000178, 0.0000000000000000000, 2.000000000000000000 ) ) ;
#92 = COORDINATED_UNIVERSAL_TIME_OFFSET ( 5, 0, .BEHIND. ) ;
#93 = APPROVAL_ROLE ( '' ) ;
#94 = VERTEX_POINT ( 'NONE', #135 ) ;
#95 = MECHANICAL_CONTEXT ( 'NONE', #164, 'mechanical' ) ;
#96 = DIRECTION ( 'NONE',  ( 1.000000000000000000, 0.0000000000000000000, 0.0000000000000000000 ) ) ;
#97 = APPLICATION_CONTEXT ( 'configuration controlled 3d designs of mechanical parts and assemblies' ) ;
#98 = ADVANCED_FACE ( 'NONE', ( #159 ), #147, .T. ) ;
#99 = PERSON_AND_ORGANIZATION ( #52, #175 ) ;
#100 = MANIFOLD_SOLID_BREP ( 'Extrude1', #156 ) ;
#101 = CC_DESIGN_PERSON_AND_ORGANIZATION_ASSIGNMENT ( #120, #152, ( #129 ) ) ;
#102 = AXIS2_PLACEMENT_3D ( 'NONE', #44, #80, #96 ) ;
#103 = LINE ( 'NONE', #18, #172 ) ;
#104 = CC_DESIGN_PERSON_AND_ORGANIZATION_ASSIGNMENT ( #87, #21, ( #146 ) ) ;
#105 = DIRECTION ( 'NONE',  ( 1.000000000000000000, 0.0000000000000000000, 0.0000000000000000000 ) ) ;
#106 = ADVANCED_FACE ( 'NONE', ( #122 ), #31, .F. ) ;
#107 = CARTESIAN_POINT ( 'NONE',  ( 0.0000000000000000000, 0.0000000000000000000, 2.000000000000000000 ) ) ;
#108 = CARTESIAN_POINT ( 'NONE',  ( 0.0000000000000000000, 0.0000000000000000000, 2.000000000000000000 ) ) ;
#109 = LOCAL_TIME ( 8, 58, 21.00000000000000000, #22 ) ;
#110 = CYLINDRICAL_SURFACE ( 'NONE', #41, 10.00000000000000178 ) ;
#111 = DIRECTION ( 'NONE',  ( -0.0000000000000000000, -0.0000000000000000000, -1.000000000000000000 ) ) ;
#112 =( GEOMETRIC_REPRESENTATION_CONTEXT ( 3 ) GLOBAL_UNCERTAINTY_ASSIGNED_CONTEXT ( ( #2 ) ) GLOBAL_UNIT_ASSIGNED_CONTEXT ( ( #34, #167, #124 ) ) REPRESENTATION_CONTEXT ( 'NONE', 'WORKASPACE' ) );
#113 = DIRECTION ( 'NONE',  ( -1.000000000000000000, 0.0000000000000000000, 0.0000000000000000000 ) ) ;
#114 = DATE_TIME_ROLE ( 'creation_date' ) ;
#115 = CIRCLE ( 'NONE', #102, 10.00000000000000178 ) ;
#116 = PERSON_AND_ORGANIZATION ( #52, #175 ) ;
#117 = CC_DESIGN_DATE_AND_TIME_ASSIGNMENT ( #29, #114, ( #146 ) ) ;
#118 = CARTESIAN_POINT ( 'NONE',  ( 0.0000000000000000000, 0.0000000000000000000, 0.0000000000000000000 ) ) ;
#119 = ADVANCED_BREP_SHAPE_REPRESENTATION ( 'Web Model 84464_13335', ( #100, #65 ), #112 ) ;
#120 = PERSON_AND_ORGANIZATION ( #52, #175 ) ;
#121 = DIRECTION ( 'NONE',  ( 0.0000000000000000000, 0.0000000000000000000, 1.000000000000000000 ) ) ;
#122 = FACE_OUTER_BOUND ( 'NONE', #39, .T. ) ;
#123 = DIRECTION ( 'NONE',  ( -1.000000000000000000, 0.0000000000000000000, 0.0000000000000000000 ) ) ;
#124 =( NAMED_UNIT ( * ) SI_UNIT ( $, .STERADIAN. ) SOLID_ANGLE_UNIT ( ) );
#125 = APPROVAL ( #150, 'UNSPECIFIED' ) ;
#126 = SECURITY_CLASSIFICATION_LEVEL ( 'unclassified' ) ;
#127 = COORDINATED_UNIVERSAL_TIME_OFFSET ( 5, 0, .BEHIND. ) ;
#128 = AXIS2_PLACEMENT_3D ( 'NONE', #136, #121, #42 ) ;
#129 = PRODUCT_DEFINITION_FORMATION_WITH_SPECIFIED_SOURCE ( 'ANY', '', #158, .NOT_KNOWN. ) ;
#130 = EDGE_LOOP ( 'NONE', ( #24, #49, #26, #67 ) ) ;
#131 = ORIENTED_EDGE ( 'NONE', *, *, #161, .F. ) ;
#132 = CC_DESIGN_PERSON_AND_ORGANIZATION_ASSIGNMENT ( #116, #23, ( #6 ) ) ;
#133 = CARTESIAN_POINT ( 'NONE',  ( 0.0000000000000000000, 0.0000000000000000000, 0.0000000000000000000 ) ) ;
#134 = DIRECTION ( 'NONE',  ( -0.0000000000000000000, -0.0000000000000000000, -1.000000000000000000 ) ) ;
#135 = CARTESIAN_POINT ( 'NONE',  ( -10.00000000000000178, 0.0000000000000000000, 0.0000000000000000000 ) ) ;
#136 = CARTESIAN_POINT ( 'NONE',  ( 0.0000000000000000000, 0.0000000000000000000, 2.000000000000000000 ) ) ;
#137 = CARTESIAN_POINT ( 'NONE',  ( 0.0000000000000000000, 0.0000000000000000000, 0.0000000000000000000 ) ) ;
#138 = EDGE_CURVE ( 'NONE', #151, #94, #115, .T. ) ;
#139 = AXIS2_PLACEMENT_3D ( 'NONE', #78, #13, #8 ) ;
#140 = CC_DESIGN_APPROVAL ( #58, ( #6 ) ) ;
#141 = FACE_OUTER_BOUND ( 'NONE', #130, .T. ) ;
#142 = DIRECTION ( 'NONE',  ( -0.0000000000000000000, -0.0000000000000000000, -1.000000000000000000 ) ) ;
#143 = PRODUCT_DEFINITION_SHAPE ( 'NONE', 'NONE',  #146 ) ;
#144 = CARTESIAN_POINT ( 'NONE',  ( 10.00000000000000178, 1.224646799147353454E-15, 2.000000000000000000 ) ) ;
#145 = APPROVAL_DATE_TIME ( #71, #28 ) ;
#146 = PRODUCT_DEFINITION ( 'UNKNOWN', '', #129, #62 ) ;
#147 = PLANE ( 'NONE',  #38 ) ;
#148 = FACE_OUTER_BOUND ( 'NONE', #15, .T. ) ;
#149 = DIRECTION ( 'NONE',  ( 0.0000000000000000000, 0.0000000000000000000, 1.000000000000000000 ) ) ;
#150 = APPROVAL_STATUS ( 'not_yet_approved' ) ;
#151 = VERTEX_POINT ( 'NONE', #69 ) ;
#152 = PERSON_AND_ORGANIZATION_ROLE ( 'creator' ) ;
#153 = CYLINDRICAL_SURFACE ( 'NONE', #66, 10.00000000000000178 ) ;
#154 = AXIS2_PLACEMENT_3D ( 'NONE', #137, #149, #3 ) ;
#155 = COORDINATED_UNIVERSAL_TIME_OFFSET ( 5, 0, .BEHIND. ) ;
#156 = CLOSED_SHELL ( 'NONE', ( #61, #163, #98, #106 ) ) ;
#157 = DATE_AND_TIME ( #79, #76 ) ;
#158 = PRODUCT ( 'Web Model 84464_13335', 'Web Model 84464_13335', '', ( #95 ) ) ;
#159 = FACE_OUTER_BOUND ( 'NONE', #46, .T. ) ;
#160 = CC_DESIGN_PERSON_AND_ORGANIZATION_ASSIGNMENT ( #27, #60, ( #129 ) ) ;
#161 = EDGE_CURVE ( 'NONE', #94, #151, #77, .T. ) ;
#162 = DIRECTION ( 'NONE',  ( -0.0000000000000000000, -0.0000000000000000000, -1.000000000000000000 ) ) ;
#163 = ADVANCED_FACE ( 'NONE', ( #141 ), #110, .T. ) ;
#164 = APPLICATION_CONTEXT ( 'configuration controlled 3d designs of mechanical parts and assemblies' ) ;
#165 = APPROVAL_PERSON_ORGANIZATION ( #166, #28, #93 ) ;
#166 = PERSON_AND_ORGANIZATION ( #52, #175 ) ;
#167 =( NAMED_UNIT ( * ) PLANE_ANGLE_UNIT ( ) SI_UNIT ( $, .RADIAN. ) );
#168 = DATE_AND_TIME ( #73, #51 ) ;
#169 = APPROVAL_ROLE ( '' ) ;
#170 = LOCAL_TIME ( 8, 58, 21.00000000000000000, #155 ) ;
#171 = APPROVAL_PERSON_ORGANIZATION ( #55, #58, #82 ) ;
#172 = VECTOR ( 'NONE', #142, 1000.000000000000000 ) ;
#173 = ORIENTED_EDGE ( 'NONE', *, *, #10, .T. ) ;
#174 = CALENDAR_DATE ( 2020, 4, 11 ) ;
#175 = ORGANIZATION ( 'UNSPECIFIED', 'UNSPECIFIED', '' ) ;
ENDSEC;
END-ISO-10303-21;
