ISO-10303-21;
HEADER;
FILE_DESCRIPTION (( 'STEP AP203' ),
    '1' );
FILE_NAME ('Web Model 13396_13401.step',
    '2021-06-30T20:29:27',
    ( '' ),
    ( '' ),
    'SwSTEP 2.0',
    'SolidWorks 2018',
    '' );
FILE_SCHEMA (( 'CONFIG_CONTROL_DESIGN' ));
ENDSEC;

DATA;
#1 = PERSON_AND_ORGANIZATION ( #35, #105 ) ;
#2 = LINE ( 'NONE', #47, #17 ) ;
#3 = ORIENTED_EDGE ( 'NONE', *, *, #59, .T. ) ;
#4 = CC_DESIGN_PERSON_AND_ORGANIZATION_ASSIGNMENT ( #225, #123, ( #156 ) ) ;
#5 = DIRECTION ( 'NONE',  ( 1.000000000000000000, 0.000000000000000000, 0.000000000000000000 ) ) ;
#6 = LOCAL_TIME ( 16, 29, 27.00000000000000000, #50 ) ;
#7 = EDGE_LOOP ( 'NONE', ( #122, #193, #3, #70 ) ) ;
#8 = DIRECTION ( 'NONE',  ( -1.387778780781445676E-16, 1.000000000000000000, 0.000000000000000000 ) ) ;
#9 = DIRECTION ( 'NONE',  ( -1.387778780781445676E-16, 1.000000000000000000, -0.000000000000000000 ) ) ;
#10 = CARTESIAN_POINT ( 'NONE',  ( 0.000000000000000000, 0.000000000000000000, 1.000000000000000000 ) ) ;
#11 = VERTEX_POINT ( 'NONE', #164 ) ;
#12 = DIRECTION ( 'NONE',  ( 0.000000000000000000, -0.000000000000000000, -1.000000000000000000 ) ) ;
#13 = ADVANCED_FACE ( 'NONE', ( #20 ), #23, .F. ) ;
#14 = SECURITY_CLASSIFICATION_LEVEL ( 'unclassified' ) ;
#15 = VECTOR ( 'NONE', #234, 1000.000000000000000 ) ;
#16 = SECURITY_CLASSIFICATION ( '', '', #14 ) ;
#17 = VECTOR ( 'NONE', #49, 1000.000000000000000 ) ;
#18 = APPROVAL_DATE_TIME ( #97, #65 ) ;
#19 = APPROVAL ( #102, 'UNSPECIFIED' ) ;
#20 = FACE_OUTER_BOUND ( 'NONE', #44, .T. ) ;
#21 = ORIENTED_EDGE ( 'NONE', *, *, #197, .T. ) ;
#22 = ORIENTED_EDGE ( 'NONE', *, *, #181, .T. ) ;
#23 = PLANE ( 'NONE',  #68 ) ;
#24 = APPROVAL ( #198, 'UNSPECIFIED' ) ;
#25 = CARTESIAN_POINT ( 'NONE',  ( -6.250000000000003553, 6.250000000000001776, 0.000000000000000000 ) ) ;
#26 = DATE_AND_TIME ( #125, #166 ) ;
#27 = DIRECTION ( 'NONE',  ( -1.387778780781445676E-16, 1.000000000000000000, -0.000000000000000000 ) ) ;
#28 = DIRECTION ( 'NONE',  ( -1.000000000000000000, -0.000000000000000000, -0.000000000000000000 ) ) ;
#29 = CARTESIAN_POINT ( 'NONE',  ( -6.250000000000003553, 6.250000000000001776, 0.000000000000000000 ) ) ;
#30 = PERSON_AND_ORGANIZATION ( #35, #105 ) ;
#31 = CARTESIAN_POINT ( 'NONE',  ( 6.249999999999996447, 6.250000000000001776, 0.000000000000000000 ) ) ;
#32 = ADVANCED_FACE ( 'NONE', ( #111 ), #43, .F. ) ;
#33 = PERSON_AND_ORGANIZATION ( #35, #105 ) ;
#34 = LINE ( 'NONE', #229, #91 ) ;
#35 = PERSON ( 'UNSPECIFIED', 'UNSPECIFIED', 'UNSPECIFIED', ('UNSPECIFIED'), ('UNSPECIFIED'), ('UNSPECIFIED') ) ;
#36 = CALENDAR_DATE ( 2021, 30, 6 ) ;
#37 = VECTOR ( 'NONE', #114, 1000.000000000000000 ) ;
#38 = ORIENTED_EDGE ( 'NONE', *, *, #160, .F. ) ;
#39 = MANIFOLD_SOLID_BREP ( 'Boss-Extrude1', #107 ) ;
#40 = CALENDAR_DATE ( 2021, 30, 6 ) ;
#41 = FACE_OUTER_BOUND ( 'NONE', #64, .T. ) ;
#42 = VERTEX_POINT ( 'NONE', #96 ) ;
#43 = PLANE ( 'NONE',  #92 ) ;
#44 = EDGE_LOOP ( 'NONE', ( #203, #86, #45, #128 ) ) ;
#45 = ORIENTED_EDGE ( 'NONE', *, *, #144, .F. ) ;
#46 = DIRECTION ( 'NONE',  ( -1.000000000000000000, -0.000000000000000000, -0.000000000000000000 ) ) ;
#47 = CARTESIAN_POINT ( 'NONE',  ( 6.249999999999998224, -6.249999999999998224, 1.000000000000000000 ) ) ;
#48 = APPROVAL_DATE_TIME ( #182, #24 ) ;
#49 = DIRECTION ( 'NONE',  ( -0.000000000000000000, -0.000000000000000000, -1.000000000000000000 ) ) ;
#50 = COORDINATED_UNIVERSAL_TIME_OFFSET ( 5, 0, .BEHIND. ) ;
#51 = CC_DESIGN_PERSON_AND_ORGANIZATION_ASSIGNMENT ( #1, #191, ( #124 ) ) ;
#52 = CARTESIAN_POINT ( 'NONE',  ( -6.250000000000003553, 6.250000000000001776, 1.000000000000000000 ) ) ;
#53 = DIRECTION ( 'NONE',  ( -0.000000000000000000, 0.000000000000000000, 1.000000000000000000 ) ) ;
#54 = CARTESIAN_POINT ( 'NONE',  ( 0.000000000000000000, 0.000000000000000000, 0.000000000000000000 ) ) ;
#55 = COORDINATED_UNIVERSAL_TIME_OFFSET ( 5, 0, .BEHIND. ) ;
#56 = PERSON_AND_ORGANIZATION_ROLE ( 'classification_officer' ) ;
#57 = EDGE_CURVE ( 'NONE', #194, #11, #2, .T. ) ;
#58 = ORIENTED_EDGE ( 'NONE', *, *, #108, .F. ) ;
#59 = EDGE_CURVE ( 'NONE', #74, #233, #94, .T. ) ;
#60 = APPROVAL_PERSON_ORGANIZATION ( #90, #65, #104 ) ;
#61 = CARTESIAN_POINT ( 'NONE',  ( 6.249999999999996447, 6.250000000000001776, 1.000000000000000000 ) ) ;
#62 = DIRECTION ( 'NONE',  ( -0.000000000000000000, 0.000000000000000000, 1.000000000000000000 ) ) ;
#63 = LINE ( 'NONE', #138, #180 ) ;
#64 = EDGE_LOOP ( 'NONE', ( #214, #101, #175, #22 ) ) ;
#65 = APPROVAL ( #66, 'UNSPECIFIED' ) ;
#66 = APPROVAL_STATUS ( 'not_yet_approved' ) ;
#67 = PLANE ( 'NONE',  #227 ) ;
#68 = AXIS2_PLACEMENT_3D ( 'NONE', #61, #187, #132 ) ;
#69 = DIRECTION ( 'NONE',  ( 1.000000000000000000, 0.000000000000000000, 0.000000000000000000 ) ) ;
#70 = ORIENTED_EDGE ( 'NONE', *, *, #77, .T. ) ;
#71 = DATE_TIME_ROLE ( 'classification_date' ) ;
#72 = EDGE_CURVE ( 'NONE', #42, #74, #78, .T. ) ;
#73 = ADVANCED_FACE ( 'NONE', ( #41 ), #186, .F. ) ;
#74 = VERTEX_POINT ( 'NONE', #100 ) ;
#75 = PRODUCT_RELATED_PRODUCT_CATEGORY ( 'detail', '', ( #126 ) ) ;
#76 = APPROVAL_DATE_TIME ( #26, #19 ) ;
#77 = EDGE_CURVE ( 'NONE', #233, #194, #167, .T. ) ;
#78 = LINE ( 'NONE', #190, #158 ) ;
#79 = DATE_AND_TIME ( #40, #135 ) ;
#80 = LINE ( 'NONE', #206, #189 ) ;
#81 = ORIENTED_EDGE ( 'NONE', *, *, #181, .F. ) ;
#82 = DATE_TIME_ROLE ( 'creation_date' ) ;
#83 =( NAMED_UNIT ( * ) PLANE_ANGLE_UNIT ( ) SI_UNIT ( $, .RADIAN. ) );
#84 = PERSON_AND_ORGANIZATION ( #35, #105 ) ;
#85 = CARTESIAN_POINT ( 'NONE',  ( 6.249999999999996447, 6.250000000000001776, 1.000000000000000000 ) ) ;
#86 = ORIENTED_EDGE ( 'NONE', *, *, #220, .F. ) ;
#87 = ORIENTED_EDGE ( 'NONE', *, *, #202, .T. ) ;
#88 = APPLICATION_CONTEXT ( 'configuration controlled 3d designs of mechanical parts and assemblies' ) ;
#89 = VECTOR ( 'NONE', #9, 1000.000000000000000 ) ;
#90 = PERSON_AND_ORGANIZATION ( #35, #105 ) ;
#91 = VECTOR ( 'NONE', #95, 1000.000000000000000 ) ;
#92 = AXIS2_PLACEMENT_3D ( 'NONE', #149, #62, #5 ) ;
#93 = CC_DESIGN_PERSON_AND_ORGANIZATION_ASSIGNMENT ( #84, #177, ( #156 ) ) ;
#94 = LINE ( 'NONE', #205, #37 ) ;
#95 = DIRECTION ( 'NONE',  ( -0.000000000000000000, -0.000000000000000000, -1.000000000000000000 ) ) ;
#96 = CARTESIAN_POINT ( 'NONE',  ( 6.249999999999996447, 6.250000000000001776, 1.000000000000000000 ) ) ;
#97 = DATE_AND_TIME ( #157, #6 ) ;
#98 = EDGE_CURVE ( 'NONE', #74, #199, #34, .T. ) ;
#99 = LINE ( 'NONE', #31, #109 ) ;
#100 = CARTESIAN_POINT ( 'NONE',  ( -6.250000000000003553, 6.250000000000001776, 1.000000000000000000 ) ) ;
#101 = ORIENTED_EDGE ( 'NONE', *, *, #57, .F. ) ;
#102 = APPROVAL_STATUS ( 'not_yet_approved' ) ;
#103 =( LENGTH_UNIT ( ) NAMED_UNIT ( * ) SI_UNIT ( .MILLI., .METRE. ) );
#104 = APPROVAL_ROLE ( '' ) ;
#105 = ORGANIZATION ( 'UNSPECIFIED', 'UNSPECIFIED', '' ) ;
#106 = VERTEX_POINT ( 'NONE', #115 ) ;
#107 = CLOSED_SHELL ( 'NONE', ( #13, #142, #155, #73, #209, #32 ) ) ;
#108 = EDGE_CURVE ( 'NONE', #106, #11, #80, .T. ) ;
#109 = VECTOR ( 'NONE', #27, 1000.000000000000000 ) ;
#110 = LINE ( 'NONE', #85, #15 ) ;
#111 = FACE_OUTER_BOUND ( 'NONE', #169, .T. ) ;
#112 = CARTESIAN_POINT ( 'NONE',  ( -6.250000000000001776, -6.249999999999998224, 1.000000000000000000 ) ) ;
#113 = ORIENTED_EDGE ( 'NONE', *, *, #72, .F. ) ;
#114 = DIRECTION ( 'NONE',  ( 1.387778780781445676E-16, -1.000000000000000000, 0.000000000000000000 ) ) ;
#115 = CARTESIAN_POINT ( 'NONE',  ( -6.250000000000001776, -6.249999999999998224, 0.000000000000000000 ) ) ;
#116 = PERSON_AND_ORGANIZATION ( #35, #105 ) ;
#117 = CC_DESIGN_SECURITY_CLASSIFICATION ( #16, ( #156 ) ) ;
#118 = APPROVAL_ROLE ( '' ) ;
#119 = DIRECTION ( 'NONE',  ( 1.387778780781445676E-16, -1.000000000000000000, 0.000000000000000000 ) ) ;
#120 = PRODUCT_DEFINITION_SHAPE ( 'NONE', 'NONE',  #124 ) ;
#121 = DIRECTION ( 'NONE',  ( 0.000000000000000000, -1.000000000000000000, 0.000000000000000000 ) ) ;
#122 = ORIENTED_EDGE ( 'NONE', *, *, #144, .T. ) ;
#123 = PERSON_AND_ORGANIZATION_ROLE ( 'creator' ) ;
#124 = PRODUCT_DEFINITION ( 'UNKNOWN', '', #156, #224 ) ;
#125 = CALENDAR_DATE ( 2021, 30, 6 ) ;
#126 = PRODUCT ( 'Web Model 13396_13401', 'Web Model 13396_13401', '', ( #196 ) ) ;
#127 = DATE_AND_TIME ( #36, #217 ) ;
#128 = ORIENTED_EDGE ( 'NONE', *, *, #57, .T. ) ;
#129 = VECTOR ( 'NONE', #230, 1000.000000000000000 ) ;
#130 = LINE ( 'NONE', #29, #216 ) ;
#131 = EDGE_LOOP ( 'NONE', ( #21, #81, #145, #185 ) ) ;
#132 = DIRECTION ( 'NONE',  ( 1.387778780781445676E-16, -1.000000000000000000, 0.000000000000000000 ) ) ;
#133 = CC_DESIGN_APPROVAL ( #19, ( #156 ) ) ;
#134 = CARTESIAN_POINT ( 'NONE',  ( -6.250000000000001776, -6.249999999999998224, 1.000000000000000000 ) ) ;
#135 = LOCAL_TIME ( 16, 29, 27.00000000000000000, #183 ) ;
#136 = LINE ( 'NONE', #137, #219 ) ;
#137 = CARTESIAN_POINT ( 'NONE',  ( -6.250000000000001776, -6.249999999999998224, 1.000000000000000000 ) ) ;
#138 = CARTESIAN_POINT ( 'NONE',  ( -6.250000000000003553, 6.250000000000001776, 0.000000000000000000 ) ) ;
#139 = APPLICATION_CONTEXT ( 'configuration controlled 3d designs of mechanical parts and assemblies' ) ;
#140 = APPROVAL_ROLE ( '' ) ;
#141 = FACE_OUTER_BOUND ( 'NONE', #161, .T. ) ;
#142 = ADVANCED_FACE ( 'NONE', ( #141 ), #159, .F. ) ;
#143 = CC_DESIGN_PERSON_AND_ORGANIZATION_ASSIGNMENT ( #33, #168, ( #126 ) ) ;
#144 = EDGE_CURVE ( 'NONE', #194, #42, #184, .T. ) ;
#145 = ORIENTED_EDGE ( 'NONE', *, *, #59, .F. ) ;
#146 = ORIENTED_EDGE ( 'NONE', *, *, #202, .F. ) ;
#147 = CC_DESIGN_DATE_AND_TIME_ASSIGNMENT ( #79, #82, ( #124 ) ) ;
#148 = CALENDAR_DATE ( 2021, 30, 6 ) ;
#149 = CARTESIAN_POINT ( 'NONE',  ( 0.000000000000000000, 0.000000000000000000, 0.000000000000000000 ) ) ;
#150 = CARTESIAN_POINT ( 'NONE',  ( -6.250000000000003553, 6.250000000000001776, 1.000000000000000000 ) ) ;
#151 = CC_DESIGN_APPROVAL ( #24, ( #16 ) ) ;
#152 = APPROVAL_PERSON_ORGANIZATION ( #116, #19, #118 ) ;
#153 = DIRECTION ( 'NONE',  ( 1.000000000000000000, 1.387778780781445676E-16, -0.000000000000000000 ) ) ;
#154 = PLANE ( 'NONE',  #176 ) ;
#155 = ADVANCED_FACE ( 'NONE', ( #236 ), #154, .F. ) ;
#156 = PRODUCT_DEFINITION_FORMATION_WITH_SPECIFIED_SOURCE ( 'ANY', '', #126, .NOT_KNOWN. ) ;
#157 = CALENDAR_DATE ( 2021, 30, 6 ) ;
#158 = VECTOR ( 'NONE', #46, 1000.000000000000000 ) ;
#159 = PLANE ( 'NONE',  #200 ) ;
#160 = EDGE_CURVE ( 'NONE', #11, #226, #99, .T. ) ;
#161 = EDGE_LOOP ( 'NONE', ( #87, #223, #113, #218 ) ) ;
#162 = DIRECTION ( 'NONE',  ( 0.000000000000000000, 1.000000000000000000, 0.000000000000000000 ) ) ;
#163 = CC_DESIGN_PERSON_AND_ORGANIZATION_ASSIGNMENT ( #30, #56, ( #16 ) ) ;
#164 = CARTESIAN_POINT ( 'NONE',  ( 6.249999999999998224, -6.249999999999998224, 0.000000000000000000 ) ) ;
#165 = ADVANCED_BREP_SHAPE_REPRESENTATION ( 'Web Model 13396_13401', ( #39, #195 ), #237 ) ;
#166 = LOCAL_TIME ( 16, 29, 27.00000000000000000, #222 ) ;
#167 = LINE ( 'NONE', #134, #129 ) ;
#168 = PERSON_AND_ORGANIZATION_ROLE ( 'design_owner' ) ;
#169 = EDGE_LOOP ( 'NONE', ( #38, #58, #178, #146 ) ) ;
#170 = DIRECTION ( 'NONE',  ( -0.000000000000000000, -0.000000000000000000, -1.000000000000000000 ) ) ;
#171 = CARTESIAN_POINT ( 'NONE',  ( -6.250000000000001776, -6.249999999999998224, 1.000000000000000000 ) ) ;
#172 = CARTESIAN_POINT ( 'NONE',  ( 6.249999999999996447, 6.250000000000001776, 1.000000000000000000 ) ) ;
#173 = COORDINATED_UNIVERSAL_TIME_OFFSET ( 5, 0, .BEHIND. ) ;
#174 = DIRECTION ( 'NONE',  ( 0.000000000000000000, 0.000000000000000000, 1.000000000000000000 ) ) ;
#175 = ORIENTED_EDGE ( 'NONE', *, *, #77, .F. ) ;
#176 = AXIS2_PLACEMENT_3D ( 'NONE', #150, #153, #8 ) ;
#177 = PERSON_AND_ORGANIZATION_ROLE ( 'design_supplier' ) ;
#178 = ORIENTED_EDGE ( 'NONE', *, *, #197, .F. ) ;
#179 = CC_DESIGN_DATE_AND_TIME_ASSIGNMENT ( #127, #71, ( #16 ) ) ;
#180 = VECTOR ( 'NONE', #119, 1000.000000000000000 ) ;
#181 = EDGE_CURVE ( 'NONE', #233, #106, #136, .T. ) ;
#182 = DATE_AND_TIME ( #148, #204 ) ;
#183 = COORDINATED_UNIVERSAL_TIME_OFFSET ( 5, 0, .BEHIND. ) ;
#184 = LINE ( 'NONE', #172, #89 ) ;
#185 = ORIENTED_EDGE ( 'NONE', *, *, #98, .T. ) ;
#186 = PLANE ( 'NONE',  #232 ) ;
#187 = DIRECTION ( 'NONE',  ( -1.000000000000000000, -1.387778780781445676E-16, 0.000000000000000000 ) ) ;
#188 = FACE_OUTER_BOUND ( 'NONE', #7, .T. ) ;
#189 = VECTOR ( 'NONE', #231, 1000.000000000000000 ) ;
#190 = CARTESIAN_POINT ( 'NONE',  ( -6.250000000000003553, 6.250000000000001776, 1.000000000000000000 ) ) ;
#191 = PERSON_AND_ORGANIZATION_ROLE ( 'creator' ) ;
#192 = CARTESIAN_POINT ( 'NONE',  ( 6.249999999999996447, 6.250000000000001776, 0.000000000000000000 ) ) ;
#193 = ORIENTED_EDGE ( 'NONE', *, *, #72, .T. ) ;
#194 = VERTEX_POINT ( 'NONE', #235 ) ;
#195 = AXIS2_PLACEMENT_3D ( 'NONE', #54, #174, #69 ) ;
#196 = MECHANICAL_CONTEXT ( 'NONE', #139, 'mechanical' ) ;
#197 = EDGE_CURVE ( 'NONE', #199, #106, #63, .T. ) ;
#198 = APPROVAL_STATUS ( 'not_yet_approved' ) ;
#199 = VERTEX_POINT ( 'NONE', #25 ) ;
#200 = AXIS2_PLACEMENT_3D ( 'NONE', #52, #121, #12 ) ;
#201 = APPROVAL_PERSON_ORGANIZATION ( #228, #24, #140 ) ;
#202 = EDGE_CURVE ( 'NONE', #226, #199, #130, .T. ) ;
#203 = ORIENTED_EDGE ( 'NONE', *, *, #160, .T. ) ;
#204 = LOCAL_TIME ( 16, 29, 27.00000000000000000, #55 ) ;
#205 = CARTESIAN_POINT ( 'NONE',  ( -6.250000000000003553, 6.250000000000001776, 1.000000000000000000 ) ) ;
#206 = CARTESIAN_POINT ( 'NONE',  ( -6.250000000000001776, -6.249999999999998224, 0.000000000000000000 ) ) ;
#207 = CC_DESIGN_APPROVAL ( #65, ( #124 ) ) ;
#208 = DIRECTION ( 'NONE',  ( 0.000000000000000000, -0.000000000000000000, 1.000000000000000000 ) ) ;
#209 = ADVANCED_FACE ( 'NONE', ( #188 ), #67, .T. ) ;
#210 = DIRECTION ( 'NONE',  ( 1.000000000000000000, 0.000000000000000000, 0.000000000000000000 ) ) ;
#211 =( NAMED_UNIT ( * ) SI_UNIT ( $, .STERADIAN. ) SOLID_ANGLE_UNIT ( ) );
#212 = APPLICATION_PROTOCOL_DEFINITION ( 'international standard', 'config_control_design', 1994, #139 ) ;
#213 = APPLICATION_PROTOCOL_DEFINITION ( 'international standard', 'config_control_design', 1994, #88 ) ;
#214 = ORIENTED_EDGE ( 'NONE', *, *, #108, .T. ) ;
#215 = UNCERTAINTY_MEASURE_WITH_UNIT (LENGTH_MEASURE( 1.000000000000000082E-05 ), #103, 'distance_accuracy_value', 'NONE');
#216 = VECTOR ( 'NONE', #28, 1000.000000000000000 ) ;
#217 = LOCAL_TIME ( 16, 29, 27.00000000000000000, #173 ) ;
#218 = ORIENTED_EDGE ( 'NONE', *, *, #220, .T. ) ;
#219 = VECTOR ( 'NONE', #170, 1000.000000000000000 ) ;
#220 = EDGE_CURVE ( 'NONE', #42, #226, #110, .T. ) ;
#221 = SHAPE_DEFINITION_REPRESENTATION ( #120, #165 ) ;
#222 = COORDINATED_UNIVERSAL_TIME_OFFSET ( 5, 0, .BEHIND. ) ;
#223 = ORIENTED_EDGE ( 'NONE', *, *, #98, .F. ) ;
#224 = DESIGN_CONTEXT ( 'detailed design', #88, 'design' ) ;
#225 = PERSON_AND_ORGANIZATION ( #35, #105 ) ;
#226 = VERTEX_POINT ( 'NONE', #192 ) ;
#227 = AXIS2_PLACEMENT_3D ( 'NONE', #10, #53, #210 ) ;
#228 = PERSON_AND_ORGANIZATION ( #35, #105 ) ;
#229 = CARTESIAN_POINT ( 'NONE',  ( -6.250000000000003553, 6.250000000000001776, 1.000000000000000000 ) ) ;
#230 = DIRECTION ( 'NONE',  ( 1.000000000000000000, 0.000000000000000000, 0.000000000000000000 ) ) ;
#231 = DIRECTION ( 'NONE',  ( 1.000000000000000000, 0.000000000000000000, 0.000000000000000000 ) ) ;
#232 = AXIS2_PLACEMENT_3D ( 'NONE', #112, #162, #208 ) ;
#233 = VERTEX_POINT ( 'NONE', #171 ) ;
#234 = DIRECTION ( 'NONE',  ( -0.000000000000000000, -0.000000000000000000, -1.000000000000000000 ) ) ;
#235 = CARTESIAN_POINT ( 'NONE',  ( 6.249999999999998224, -6.249999999999998224, 1.000000000000000000 ) ) ;
#236 = FACE_OUTER_BOUND ( 'NONE', #131, .T. ) ;
#237 =( GEOMETRIC_REPRESENTATION_CONTEXT ( 3 ) GLOBAL_UNCERTAINTY_ASSIGNED_CONTEXT ( ( #215 ) ) GLOBAL_UNIT_ASSIGNED_CONTEXT ( ( #103, #83, #211 ) ) REPRESENTATION_CONTEXT ( 'NONE', 'WORKASPACE' ) );
ENDSEC;
END-ISO-10303-21;
