ISO-10303-21;
HEADER;
FILE_DESCRIPTION (( 'STEP AP203' ),
    '1' );
FILE_NAME ('Web Model 65925.STEP',
    '2017-01-31T19:32:13',
    ( '' ),
    ( '' ),
    'SwSTEP 2.0',
    'SolidWorks 2016',
    '' );
FILE_SCHEMA (( 'CONFIG_CONTROL_DESIGN' ));
ENDSEC;

DATA;
#1 = CC_DESIGN_APPROVAL ( #110, ( #65 ) ) ;
#2 = DIRECTION ( 'NONE',  ( 0.0000000000000000000, 0.0000000000000000000, 1.000000000000000000 ) ) ;
#3 = EDGE_CURVE ( 'NONE', #109, #26, #55, .T. ) ;
#4 = CARTESIAN_POINT ( 'NONE',  ( 0.0000000000000000000, 0.0000000000000000000, 3.000000000000000000 ) ) ;
#5 = MANIFOLD_SOLID_BREP ( 'Extrude1', #62 ) ;
#6 = APPROVAL_STATUS ( 'not_yet_approved' ) ;
#7 = DESIGN_CONTEXT ( 'detailed design', #58, 'design' ) ;
#8 = ORIENTED_EDGE ( 'NONE', *, *, #3, .T. ) ;
#9 = APPLICATION_PROTOCOL_DEFINITION ( 'international standard', 'config_control_design', 1994, #58 ) ;
#10 = APPROVAL_STATUS ( 'not_yet_approved' ) ;
#11 = CC_DESIGN_PERSON_AND_ORGANIZATION_ASSIGNMENT ( #37, #36, ( #158 ) ) ;
#12 = DATE_TIME_ROLE ( 'classification_date' ) ;
#13 = LOCAL_TIME ( 14, 32, 13.00000000000000000, #79 ) ;
#14 = DATE_AND_TIME ( #85, #114 ) ;
#15 = LINE ( 'NONE', #119, #113 ) ;
#16 = AXIS2_PLACEMENT_3D ( 'NONE', #124, #46, #137 ) ;
#17 = ORIENTED_EDGE ( 'NONE', *, *, #53, .F. ) ;
#18 = COORDINATED_UNIVERSAL_TIME_OFFSET ( 5, 0, .BEHIND. ) ;
#19 = EDGE_CURVE ( 'NONE', #109, #129, #15, .T. ) ;
#20 = PLANE ( 'NONE',  #82 ) ;
#21 = PERSON_AND_ORGANIZATION_ROLE ( 'creator' ) ;
#22 = APPROVAL_PERSON_ORGANIZATION ( #29, #31, #100 ) ;
#23 = UNCERTAINTY_MEASURE_WITH_UNIT (LENGTH_MEASURE( 1.000000000000000100E-005 ), #149, 'distance_accuracy_value', 'NONE');
#24 =( GEOMETRIC_REPRESENTATION_CONTEXT ( 3 ) GLOBAL_UNCERTAINTY_ASSIGNED_CONTEXT ( ( #23 ) ) GLOBAL_UNIT_ASSIGNED_CONTEXT ( ( #149, #47, #89 ) ) REPRESENTATION_CONTEXT ( 'NONE', 'WORKASPACE' ) );
#25 = COORDINATED_UNIVERSAL_TIME_OFFSET ( 5, 0, .BEHIND. ) ;
#26 = VERTEX_POINT ( 'NONE', #164 ) ;
#27 = AXIS2_PLACEMENT_3D ( 'NONE', #106, #166, #44 ) ;
#28 = FACE_OUTER_BOUND ( 'NONE', #104, .T. ) ;
#29 = PERSON_AND_ORGANIZATION ( #115, #172 ) ;
#30 = ORIENTED_EDGE ( 'NONE', *, *, #3, .F. ) ;
#31 = APPROVAL ( #6, 'UNSPECIFIED' ) ;
#32 = CARTESIAN_POINT ( 'NONE',  ( 0.0000000000000000000, 0.0000000000000000000, 3.000000000000000000 ) ) ;
#33 = PLANE ( 'NONE',  #66 ) ;
#34 = DIRECTION ( 'NONE',  ( -1.000000000000000000, 0.0000000000000000000, 0.0000000000000000000 ) ) ;
#35 = EDGE_CURVE ( 'NONE', #26, #38, #151, .T. ) ;
#36 = PERSON_AND_ORGANIZATION_ROLE ( 'design_supplier' ) ;
#37 = PERSON_AND_ORGANIZATION ( #115, #172 ) ;
#38 = VERTEX_POINT ( 'NONE', #105 ) ;
#39 = DIRECTION ( 'NONE',  ( -0.0000000000000000000, -0.0000000000000000000, -1.000000000000000000 ) ) ;
#40 = APPROVAL_PERSON_ORGANIZATION ( #152, #110, #156 ) ;
#41 = DIRECTION ( 'NONE',  ( 1.000000000000000000, 0.0000000000000000000, 0.0000000000000000000 ) ) ;
#42 = ORIENTED_EDGE ( 'NONE', *, *, #53, .T. ) ;
#43 = AXIS2_PLACEMENT_3D ( 'NONE', #120, #39, #34 ) ;
#44 = DIRECTION ( 'NONE',  ( 1.000000000000000000, 0.0000000000000000000, 0.0000000000000000000 ) ) ;
#45 = DIRECTION ( 'NONE',  ( 1.000000000000000000, 0.0000000000000000000, -0.0000000000000000000 ) ) ;
#46 = DIRECTION ( 'NONE',  ( 0.0000000000000000000, 0.0000000000000000000, 1.000000000000000000 ) ) ;
#47 =( NAMED_UNIT ( * ) PLANE_ANGLE_UNIT ( ) SI_UNIT ( $, .RADIAN. ) );
#48 = CC_DESIGN_PERSON_AND_ORGANIZATION_ASSIGNMENT ( #91, #138, ( #158 ) ) ;
#49 = LOCAL_TIME ( 14, 32, 13.00000000000000000, #78 ) ;
#50 = PRODUCT_DEFINITION_SHAPE ( 'NONE', 'NONE',  #131 ) ;
#51 = APPROVAL_DATE_TIME ( #118, #94 ) ;
#52 = ORIENTED_EDGE ( 'NONE', *, *, #112, .F. ) ;
#53 = EDGE_CURVE ( 'NONE', #129, #38, #160, .T. ) ;
#54 = PRODUCT_RELATED_PRODUCT_CATEGORY ( 'detail', '', ( #161 ) ) ;
#55 = CIRCLE ( 'NONE', #122, 15.00000000000000000 ) ;
#56 = DIRECTION ( 'NONE',  ( 1.000000000000000000, 0.0000000000000000000, 0.0000000000000000000 ) ) ;
#57 = CARTESIAN_POINT ( 'NONE',  ( 0.0000000000000000000, 0.0000000000000000000, 3.000000000000000000 ) ) ;
#58 = APPLICATION_CONTEXT ( 'configuration controlled 3d designs of mechanical parts and assemblies' ) ;
#59 = DIRECTION ( 'NONE',  ( 0.0000000000000000000, 0.0000000000000000000, 1.000000000000000000 ) ) ;
#60 = SECURITY_CLASSIFICATION_LEVEL ( 'unclassified' ) ;
#61 = PERSON_AND_ORGANIZATION ( #115, #172 ) ;
#62 = CLOSED_SHELL ( 'NONE', ( #83, #175, #116, #146 ) ) ;
#63 = FACE_OUTER_BOUND ( 'NONE', #153, .T. ) ;
#64 = ORIENTED_EDGE ( 'NONE', *, *, #19, .T. ) ;
#65 = SECURITY_CLASSIFICATION ( '', '', #60 ) ;
#66 = AXIS2_PLACEMENT_3D ( 'NONE', #86, #134, #87 ) ;
#67 = CALENDAR_DATE ( 2017, 31, 1 ) ;
#68 = ORIENTED_EDGE ( 'NONE', *, *, #35, .F. ) ;
#69 = DIRECTION ( 'NONE',  ( -0.0000000000000000000, -0.0000000000000000000, -1.000000000000000000 ) ) ;
#70 = DIRECTION ( 'NONE',  ( -0.0000000000000000000, -0.0000000000000000000, -1.000000000000000000 ) ) ;
#71 = CARTESIAN_POINT ( 'NONE',  ( 15.00000000000000000, 1.836970198721029600E-015, 0.0000000000000000000 ) ) ;
#72 = LOCAL_TIME ( 14, 32, 13.00000000000000000, #144 ) ;
#73 = AXIS2_PLACEMENT_3D ( 'NONE', #121, #2, #41 ) ;
#74 = ORIENTED_EDGE ( 'NONE', *, *, #19, .F. ) ;
#75 = DIRECTION ( 'NONE',  ( 0.0000000000000000000, 0.0000000000000000000, 1.000000000000000000 ) ) ;
#76 = APPLICATION_PROTOCOL_DEFINITION ( 'international standard', 'config_control_design', 1994, #77 ) ;
#77 = APPLICATION_CONTEXT ( 'configuration controlled 3d designs of mechanical parts and assemblies' ) ;
#78 = COORDINATED_UNIVERSAL_TIME_OFFSET ( 5, 0, .BEHIND. ) ;
#79 = COORDINATED_UNIVERSAL_TIME_OFFSET ( 5, 0, .BEHIND. ) ;
#80 = AXIS2_PLACEMENT_3D ( 'NONE', #99, #59, #154 ) ;
#81 = ORIENTED_EDGE ( 'NONE', *, *, #112, .T. ) ;
#82 = AXIS2_PLACEMENT_3D ( 'NONE', #57, #123, #45 ) ;
#83 = ADVANCED_FACE ( 'NONE', ( #127 ), #132, .T. ) ;
#84 = CC_DESIGN_SECURITY_CLASSIFICATION ( #65, ( #158 ) ) ;
#85 = CALENDAR_DATE ( 2017, 31, 1 ) ;
#86 = CARTESIAN_POINT ( 'NONE',  ( 0.0000000000000000000, 0.0000000000000000000, 0.0000000000000000000 ) ) ;
#87 = DIRECTION ( 'NONE',  ( 1.000000000000000000, 0.0000000000000000000, -0.0000000000000000000 ) ) ;
#88 = EDGE_LOOP ( 'NONE', ( #111, #17 ) ) ;
#89 =( NAMED_UNIT ( * ) SI_UNIT ( $, .STERADIAN. ) SOLID_ANGLE_UNIT ( ) );
#90 = MECHANICAL_CONTEXT ( 'NONE', #77, 'mechanical' ) ;
#91 = PERSON_AND_ORGANIZATION ( #115, #172 ) ;
#92 = CC_DESIGN_PERSON_AND_ORGANIZATION_ASSIGNMENT ( #61, #167, ( #161 ) ) ;
#93 = SHAPE_DEFINITION_REPRESENTATION ( #50, #130 ) ;
#94 = APPROVAL ( #125, 'UNSPECIFIED' ) ;
#95 = CC_DESIGN_DATE_AND_TIME_ASSIGNMENT ( #14, #12, ( #65 ) ) ;
#96 = CARTESIAN_POINT ( 'NONE',  ( 15.00000000000000000, 1.836970198721029600E-015, 3.000000000000000000 ) ) ;
#97 = CIRCLE ( 'NONE', #73, 15.00000000000000000 ) ;
#98 = DIRECTION ( 'NONE',  ( -0.0000000000000000000, -0.0000000000000000000, -1.000000000000000000 ) ) ;
#99 = CARTESIAN_POINT ( 'NONE',  ( 0.0000000000000000000, 0.0000000000000000000, 0.0000000000000000000 ) ) ;
#100 = APPROVAL_ROLE ( '' ) ;
#101 = APPROVAL_DATE_TIME ( #173, #110 ) ;
#102 = CIRCLE ( 'NONE', #16, 15.00000000000000000 ) ;
#103 = PERSON_AND_ORGANIZATION ( #115, #172 ) ;
#104 = EDGE_LOOP ( 'NONE', ( #74, #52, #163, #169 ) ) ;
#105 = CARTESIAN_POINT ( 'NONE',  ( -15.00000000000000000, 0.0000000000000000000, 0.0000000000000000000 ) ) ;
#106 = CARTESIAN_POINT ( 'NONE',  ( 0.0000000000000000000, 0.0000000000000000000, 0.0000000000000000000 ) ) ;
#107 = DATE_TIME_ROLE ( 'creation_date' ) ;
#108 = PERSON_AND_ORGANIZATION ( #115, #172 ) ;
#109 = VERTEX_POINT ( 'NONE', #96 ) ;
#110 = APPROVAL ( #10, 'UNSPECIFIED' ) ;
#111 = ORIENTED_EDGE ( 'NONE', *, *, #171, .F. ) ;
#112 = EDGE_CURVE ( 'NONE', #26, #109, #97, .T. ) ;
#113 = VECTOR ( 'NONE', #70, 1000.000000000000000 ) ;
#114 = LOCAL_TIME ( 14, 32, 13.00000000000000000, #18 ) ;
#115 = PERSON ( 'UNSPECIFIED', 'UNSPECIFIED', 'UNSPECIFIED', ('UNSPECIFIED'), ('UNSPECIFIED'), ('UNSPECIFIED') ) ;
#116 = ADVANCED_FACE ( 'NONE', ( #63 ), #20, .T. ) ;
#117 = CC_DESIGN_APPROVAL ( #31, ( #131 ) ) ;
#118 = DATE_AND_TIME ( #67, #13 ) ;
#119 = CARTESIAN_POINT ( 'NONE',  ( 15.00000000000000000, 1.836970198721029600E-015, 3.000000000000000000 ) ) ;
#120 = CARTESIAN_POINT ( 'NONE',  ( 0.0000000000000000000, 0.0000000000000000000, 3.000000000000000000 ) ) ;
#121 = CARTESIAN_POINT ( 'NONE',  ( 0.0000000000000000000, 0.0000000000000000000, 3.000000000000000000 ) ) ;
#122 = AXIS2_PLACEMENT_3D ( 'NONE', #32, #75, #56 ) ;
#123 = DIRECTION ( 'NONE',  ( 0.0000000000000000000, 0.0000000000000000000, 1.000000000000000000 ) ) ;
#124 = CARTESIAN_POINT ( 'NONE',  ( 0.0000000000000000000, 0.0000000000000000000, 0.0000000000000000000 ) ) ;
#125 = APPROVAL_STATUS ( 'not_yet_approved' ) ;
#126 = DATE_AND_TIME ( #143, #162 ) ;
#127 = FACE_OUTER_BOUND ( 'NONE', #145, .T. ) ;
#128 = DATE_AND_TIME ( #133, #49 ) ;
#129 = VERTEX_POINT ( 'NONE', #71 ) ;
#130 = ADVANCED_BREP_SHAPE_REPRESENTATION ( 'Web Model 65925', ( #5, #80 ), #24 ) ;
#131 = PRODUCT_DEFINITION ( 'UNKNOWN', '', #158, #7 ) ;
#132 = CYLINDRICAL_SURFACE ( 'NONE', #43, 15.00000000000000000 ) ;
#133 = CALENDAR_DATE ( 2017, 31, 1 ) ;
#134 = DIRECTION ( 'NONE',  ( 0.0000000000000000000, 0.0000000000000000000, 1.000000000000000000 ) ) ;
#135 = CALENDAR_DATE ( 2017, 31, 1 ) ;
#136 = CARTESIAN_POINT ( 'NONE',  ( -15.00000000000000000, 0.0000000000000000000, 3.000000000000000000 ) ) ;
#137 = DIRECTION ( 'NONE',  ( 1.000000000000000000, 0.0000000000000000000, 0.0000000000000000000 ) ) ;
#138 = PERSON_AND_ORGANIZATION_ROLE ( 'creator' ) ;
#139 = APPROVAL_PERSON_ORGANIZATION ( #150, #94, #168 ) ;
#140 = PERSON_AND_ORGANIZATION_ROLE ( 'classification_officer' ) ;
#141 = AXIS2_PLACEMENT_3D ( 'NONE', #4, #98, #148 ) ;
#142 = CC_DESIGN_DATE_AND_TIME_ASSIGNMENT ( #126, #107, ( #131 ) ) ;
#143 = CALENDAR_DATE ( 2017, 31, 1 ) ;
#144 = COORDINATED_UNIVERSAL_TIME_OFFSET ( 5, 0, .BEHIND. ) ;
#145 = EDGE_LOOP ( 'NONE', ( #30, #64, #42, #68 ) ) ;
#146 = ADVANCED_FACE ( 'NONE', ( #170 ), #33, .F. ) ;
#147 = CC_DESIGN_PERSON_AND_ORGANIZATION_ASSIGNMENT ( #103, #21, ( #131 ) ) ;
#148 = DIRECTION ( 'NONE',  ( -1.000000000000000000, 0.0000000000000000000, 0.0000000000000000000 ) ) ;
#149 =( LENGTH_UNIT ( ) NAMED_UNIT ( * ) SI_UNIT ( .MILLI., .METRE. ) );
#150 = PERSON_AND_ORGANIZATION ( #115, #172 ) ;
#151 = LINE ( 'NONE', #136, #174 ) ;
#152 = PERSON_AND_ORGANIZATION ( #115, #172 ) ;
#153 = EDGE_LOOP ( 'NONE', ( #81, #8 ) ) ;
#154 = DIRECTION ( 'NONE',  ( 1.000000000000000000, 0.0000000000000000000, 0.0000000000000000000 ) ) ;
#155 = CYLINDRICAL_SURFACE ( 'NONE', #141, 15.00000000000000000 ) ;
#156 = APPROVAL_ROLE ( '' ) ;
#157 = CC_DESIGN_APPROVAL ( #94, ( #158 ) ) ;
#158 = PRODUCT_DEFINITION_FORMATION_WITH_SPECIFIED_SOURCE ( 'ANY', '', #161, .NOT_KNOWN. ) ;
#159 = APPROVAL_DATE_TIME ( #128, #31 ) ;
#160 = CIRCLE ( 'NONE', #27, 15.00000000000000000 ) ;
#161 = PRODUCT ( 'Web Model 65925', 'Web Model 65925', '', ( #90 ) ) ;
#162 = LOCAL_TIME ( 14, 32, 13.00000000000000000, #25 ) ;
#163 = ORIENTED_EDGE ( 'NONE', *, *, #35, .T. ) ;
#164 = CARTESIAN_POINT ( 'NONE',  ( -15.00000000000000000, 0.0000000000000000000, 3.000000000000000000 ) ) ;
#165 = CC_DESIGN_PERSON_AND_ORGANIZATION_ASSIGNMENT ( #108, #140, ( #65 ) ) ;
#166 = DIRECTION ( 'NONE',  ( 0.0000000000000000000, 0.0000000000000000000, 1.000000000000000000 ) ) ;
#167 = PERSON_AND_ORGANIZATION_ROLE ( 'design_owner' ) ;
#168 = APPROVAL_ROLE ( '' ) ;
#169 = ORIENTED_EDGE ( 'NONE', *, *, #171, .T. ) ;
#170 = FACE_OUTER_BOUND ( 'NONE', #88, .T. ) ;
#171 = EDGE_CURVE ( 'NONE', #38, #129, #102, .T. ) ;
#172 = ORGANIZATION ( 'UNSPECIFIED', 'UNSPECIFIED', '' ) ;
#173 = DATE_AND_TIME ( #135, #72 ) ;
#174 = VECTOR ( 'NONE', #69, 1000.000000000000000 ) ;
#175 = ADVANCED_FACE ( 'NONE', ( #28 ), #155, .T. ) ;
ENDSEC;
END-ISO-10303-21;
