ISO-10303-21;
HEADER;
FILE_DESCRIPTION (( 'STEP AP203' ),
    '1' );
FILE_NAME ('Web Model 39401_39464.step',
    '2018-10-05T20:55:04',
    ( '' ),
    ( '' ),
    'SwSTEP 2.0',
    'SolidWorks 2016',
    '' );
FILE_SCHEMA (( 'CONFIG_CONTROL_DESIGN' ));
ENDSEC;

DATA;
#1 = ORGANIZATION ( 'UNSPECIFIED', 'UNSPECIFIED', '' ) ;
#2 = VERTEX_POINT ( 'NONE', #107 ) ;
#3 = ORIENTED_EDGE ( 'NONE', *, *, #75, .T. ) ;
#4 = APPROVAL ( #97, 'UNSPECIFIED' ) ;
#5 = EDGE_LOOP ( 'NONE', ( #141, #149 ) ) ;
#6 = APPROVAL_PERSON_ORGANIZATION ( #36, #80, #173 ) ;
#7 = CLOSED_SHELL ( 'NONE', ( #110, #32, #16, #86 ) ) ;
#8 = AXIS2_PLACEMENT_3D ( 'NONE', #70, #148, #10 ) ;
#9 = CARTESIAN_POINT ( 'NONE',  ( 0.0000000000000000000, 0.0000000000000000000, -1.000000000000000000 ) ) ;
#10 = DIRECTION ( 'NONE',  ( 1.000000000000000000, 0.0000000000000000000, 0.0000000000000000000 ) ) ;
#11 = AXIS2_PLACEMENT_3D ( 'NONE', #26, #66, #82 ) ;
#12 = PERSON_AND_ORGANIZATION_ROLE ( 'design_supplier' ) ;
#13 = CC_DESIGN_PERSON_AND_ORGANIZATION_ASSIGNMENT ( #137, #12, ( #47 ) ) ;
#14 = SHAPE_DEFINITION_REPRESENTATION ( #106, #90 ) ;
#15 = AXIS2_PLACEMENT_3D ( 'NONE', #171, #52, #95 ) ;
#16 = ADVANCED_FACE ( 'NONE', ( #156 ), #64, .T. ) ;
#17 = COORDINATED_UNIVERSAL_TIME_OFFSET ( 5, 0, .BEHIND. ) ;
#18 = CARTESIAN_POINT ( 'NONE',  ( 25.39999999999999900, 3.110602869834276900E-015, 1.000000000000000000 ) ) ;
#19 = DATE_AND_TIME ( #124, #154 ) ;
#20 = CC_DESIGN_PERSON_AND_ORGANIZATION_ASSIGNMENT ( #119, #105, ( #118 ) ) ;
#21 = CALENDAR_DATE ( 2018, 5, 10 ) ;
#22 = CC_DESIGN_PERSON_AND_ORGANIZATION_ASSIGNMENT ( #98, #127, ( #47 ) ) ;
#23 = AXIS2_PLACEMENT_3D ( 'NONE', #28, #108, #136 ) ;
#24 = PERSON_AND_ORGANIZATION_ROLE ( 'classification_officer' ) ;
#25 = CYLINDRICAL_SURFACE ( 'NONE', #15, 25.39999999999999900 ) ;
#26 = CARTESIAN_POINT ( 'NONE',  ( 0.0000000000000000000, 0.0000000000000000000, 1.000000000000000000 ) ) ;
#27 = APPROVAL_ROLE ( '' ) ;
#28 = CARTESIAN_POINT ( 'NONE',  ( 0.0000000000000000000, 0.0000000000000000000, 1.000000000000000000 ) ) ;
#29 = CC_DESIGN_PERSON_AND_ORGANIZATION_ASSIGNMENT ( #37, #69, ( #123 ) ) ;
#30 = EDGE_CURVE ( 'NONE', #129, #150, #116, .T. ) ;
#31 = ORIENTED_EDGE ( 'NONE', *, *, #30, .T. ) ;
#32 = ADVANCED_FACE ( 'NONE', ( #73 ), #25, .T. ) ;
#33 = SECURITY_CLASSIFICATION ( '', '', #92 ) ;
#34 = MANIFOLD_SOLID_BREP ( 'Boss-Extrude1', #7 ) ;
#35 = AXIS2_PLACEMENT_3D ( 'NONE', #84, #133, #140 ) ;
#36 = PERSON_AND_ORGANIZATION ( #145, #1 ) ;
#37 = PERSON_AND_ORGANIZATION ( #145, #1 ) ;
#38 = EDGE_CURVE ( 'NONE', #112, #129, #56, .T. ) ;
#39 = DATE_TIME_ROLE ( 'classification_date' ) ;
#40 = CARTESIAN_POINT ( 'NONE',  ( -25.39999999999999900, 0.0000000000000000000, -1.000000000000000000 ) ) ;
#41 = CARTESIAN_POINT ( 'NONE',  ( -25.39999999999999900, 0.0000000000000000000, 1.000000000000000000 ) ) ;
#42 = COORDINATED_UNIVERSAL_TIME_OFFSET ( 5, 0, .BEHIND. ) ;
#43 = CARTESIAN_POINT ( 'NONE',  ( 0.0000000000000000000, 0.0000000000000000000, -1.000000000000000000 ) ) ;
#44 = APPROVAL ( #126, 'UNSPECIFIED' ) ;
#45 = PERSON_AND_ORGANIZATION ( #145, #1 ) ;
#46 = VECTOR ( 'NONE', #139, 1000.000000000000000 ) ;
#47 = PRODUCT_DEFINITION_FORMATION_WITH_SPECIFIED_SOURCE ( 'ANY', '', #123, .NOT_KNOWN. ) ;
#48 = APPROVAL_DATE_TIME ( #94, #80 ) ;
#49 = DIRECTION ( 'NONE',  ( 0.0000000000000000000, 0.0000000000000000000, 1.000000000000000000 ) ) ;
#50 = ORIENTED_EDGE ( 'NONE', *, *, #38, .F. ) ;
#51 = EDGE_CURVE ( 'NONE', #150, #2, #166, .T. ) ;
#52 = DIRECTION ( 'NONE',  ( -0.0000000000000000000, -0.0000000000000000000, -1.000000000000000000 ) ) ;
#53 = LINE ( 'NONE', #18, #46 ) ;
#54 = APPLICATION_PROTOCOL_DEFINITION ( 'international standard', 'config_control_design', 1994, #57 ) ;
#55 = CARTESIAN_POINT ( 'NONE',  ( 0.0000000000000000000, 0.0000000000000000000, 1.000000000000000000 ) ) ;
#56 = CIRCLE ( 'NONE', #60, 25.39999999999999900 ) ;
#57 = APPLICATION_CONTEXT ( 'configuration controlled 3d designs of mechanical parts and assemblies' ) ;
#58 = CALENDAR_DATE ( 2018, 5, 10 ) ;
#59 = APPROVAL_PERSON_ORGANIZATION ( #45, #4, #27 ) ;
#60 = AXIS2_PLACEMENT_3D ( 'NONE', #62, #49, #120 ) ;
#61 = DIRECTION ( 'NONE',  ( 0.0000000000000000000, 0.0000000000000000000, 1.000000000000000000 ) ) ;
#62 = CARTESIAN_POINT ( 'NONE',  ( 0.0000000000000000000, 0.0000000000000000000, 1.000000000000000000 ) ) ;
#63 = ORIENTED_EDGE ( 'NONE', *, *, #72, .T. ) ;
#64 = PLANE ( 'NONE',  #11 ) ;
#65 = EDGE_LOOP ( 'NONE', ( #50, #63, #3, #109 ) ) ;
#66 = DIRECTION ( 'NONE',  ( 0.0000000000000000000, 0.0000000000000000000, 1.000000000000000000 ) ) ;
#67 = CARTESIAN_POINT ( 'NONE',  ( -25.39999999999999900, 0.0000000000000000000, 1.000000000000000000 ) ) ;
#68 = AXIS2_PLACEMENT_3D ( 'NONE', #43, #61, #117 ) ;
#69 = PERSON_AND_ORGANIZATION_ROLE ( 'design_owner' ) ;
#70 = CARTESIAN_POINT ( 'NONE',  ( 0.0000000000000000000, 0.0000000000000000000, 0.0000000000000000000 ) ) ;
#71 = CIRCLE ( 'NONE', #78, 25.39999999999999900 ) ;
#72 = EDGE_CURVE ( 'NONE', #112, #2, #53, .T. ) ;
#73 = FACE_OUTER_BOUND ( 'NONE', #155, .T. ) ;
#74 = DIRECTION ( 'NONE',  ( 0.0000000000000000000, 0.0000000000000000000, 1.000000000000000000 ) ) ;
#75 = EDGE_CURVE ( 'NONE', #2, #150, #71, .T. ) ;
#76 = FACE_OUTER_BOUND ( 'NONE', #65, .T. ) ;
#77 = ORIENTED_EDGE ( 'NONE', *, *, #75, .F. ) ;
#78 = AXIS2_PLACEMENT_3D ( 'NONE', #9, #74, #162 ) ;
#79 = CALENDAR_DATE ( 2018, 5, 10 ) ;
#80 = APPROVAL ( #85, 'UNSPECIFIED' ) ;
#81 = COORDINATED_UNIVERSAL_TIME_OFFSET ( 5, 0, .BEHIND. ) ;
#82 = DIRECTION ( 'NONE',  ( 1.000000000000000000, 0.0000000000000000000, -0.0000000000000000000 ) ) ;
#83 =( LENGTH_UNIT ( ) NAMED_UNIT ( * ) SI_UNIT ( .MILLI., .METRE. ) );
#84 = CARTESIAN_POINT ( 'NONE',  ( 0.0000000000000000000, 0.0000000000000000000, -1.000000000000000000 ) ) ;
#85 = APPROVAL_STATUS ( 'not_yet_approved' ) ;
#86 = ADVANCED_FACE ( 'NONE', ( #111 ), #164, .F. ) ;
#87 = ORIENTED_EDGE ( 'NONE', *, *, #51, .T. ) ;
#88 = ORIENTED_EDGE ( 'NONE', *, *, #151, .F. ) ;
#89 = PERSON_AND_ORGANIZATION ( #145, #1 ) ;
#90 = ADVANCED_BREP_SHAPE_REPRESENTATION ( 'Web Model 39401_39464', ( #34, #8 ), #104 ) ;
#91 = CC_DESIGN_APPROVAL ( #44, ( #33 ) ) ;
#92 = SECURITY_CLASSIFICATION_LEVEL ( 'unclassified' ) ;
#93 = CARTESIAN_POINT ( 'NONE',  ( 25.39999999999999900, 3.110602869834276900E-015, 1.000000000000000000 ) ) ;
#94 = DATE_AND_TIME ( #79, #143 ) ;
#95 = DIRECTION ( 'NONE',  ( -1.000000000000000000, 0.0000000000000000000, 0.0000000000000000000 ) ) ;
#96 =( NAMED_UNIT ( * ) SI_UNIT ( $, .STERADIAN. ) SOLID_ANGLE_UNIT ( ) );
#97 = APPROVAL_STATUS ( 'not_yet_approved' ) ;
#98 = PERSON_AND_ORGANIZATION ( #145, #1 ) ;
#99 = DATE_AND_TIME ( #58, #114 ) ;
#100 = DATE_AND_TIME ( #21, #170 ) ;
#101 = APPROVAL_PERSON_ORGANIZATION ( #128, #44, #157 ) ;
#102 = CIRCLE ( 'NONE', #23, 25.39999999999999900 ) ;
#103 = DATE_AND_TIME ( #122, #152 ) ;
#104 =( GEOMETRIC_REPRESENTATION_CONTEXT ( 3 ) GLOBAL_UNCERTAINTY_ASSIGNED_CONTEXT ( ( #134 ) ) GLOBAL_UNIT_ASSIGNED_CONTEXT ( ( #83, #160, #96 ) ) REPRESENTATION_CONTEXT ( 'NONE', 'WORKASPACE' ) );
#105 = PERSON_AND_ORGANIZATION_ROLE ( 'creator' ) ;
#106 = PRODUCT_DEFINITION_SHAPE ( 'NONE', 'NONE',  #118 ) ;
#107 = CARTESIAN_POINT ( 'NONE',  ( 25.39999999999999900, 3.110602869834276900E-015, -1.000000000000000000 ) ) ;
#108 = DIRECTION ( 'NONE',  ( 0.0000000000000000000, 0.0000000000000000000, 1.000000000000000000 ) ) ;
#109 = ORIENTED_EDGE ( 'NONE', *, *, #30, .F. ) ;
#110 = ADVANCED_FACE ( 'NONE', ( #76 ), #147, .T. ) ;
#111 = FACE_OUTER_BOUND ( 'NONE', #125, .T. ) ;
#112 = VERTEX_POINT ( 'NONE', #93 ) ;
#113 = CC_DESIGN_DATE_AND_TIME_ASSIGNMENT ( #19, #39, ( #33 ) ) ;
#114 = LOCAL_TIME ( 16, 55, 4.000000000000000000, #165 ) ;
#115 = CC_DESIGN_APPROVAL ( #4, ( #47 ) ) ;
#116 = LINE ( 'NONE', #67, #175 ) ;
#117 = DIRECTION ( 'NONE',  ( 1.000000000000000000, 0.0000000000000000000, 0.0000000000000000000 ) ) ;
#118 = PRODUCT_DEFINITION ( 'UNKNOWN', '', #47, #167 ) ;
#119 = PERSON_AND_ORGANIZATION ( #145, #1 ) ;
#120 = DIRECTION ( 'NONE',  ( 1.000000000000000000, 0.0000000000000000000, 0.0000000000000000000 ) ) ;
#121 = AXIS2_PLACEMENT_3D ( 'NONE', #55, #138, #169 ) ;
#122 = CALENDAR_DATE ( 2018, 5, 10 ) ;
#123 = PRODUCT ( 'Web Model 39401_39464', 'Web Model 39401_39464', '', ( #163 ) ) ;
#124 = CALENDAR_DATE ( 2018, 5, 10 ) ;
#125 = EDGE_LOOP ( 'NONE', ( #144, #77 ) ) ;
#126 = APPROVAL_STATUS ( 'not_yet_approved' ) ;
#127 = PERSON_AND_ORGANIZATION_ROLE ( 'creator' ) ;
#128 = PERSON_AND_ORGANIZATION ( #145, #1 ) ;
#129 = VERTEX_POINT ( 'NONE', #41 ) ;
#130 = CC_DESIGN_APPROVAL ( #80, ( #118 ) ) ;
#131 = PRODUCT_RELATED_PRODUCT_CATEGORY ( 'detail', '', ( #123 ) ) ;
#132 = COORDINATED_UNIVERSAL_TIME_OFFSET ( 5, 0, .BEHIND. ) ;
#133 = DIRECTION ( 'NONE',  ( 0.0000000000000000000, 0.0000000000000000000, 1.000000000000000000 ) ) ;
#134 = UNCERTAINTY_MEASURE_WITH_UNIT (LENGTH_MEASURE( 1.000000000000000100E-005 ), #83, 'distance_accuracy_value', 'NONE');
#135 = CC_DESIGN_PERSON_AND_ORGANIZATION_ASSIGNMENT ( #89, #24, ( #33 ) ) ;
#136 = DIRECTION ( 'NONE',  ( 1.000000000000000000, 0.0000000000000000000, 0.0000000000000000000 ) ) ;
#137 = PERSON_AND_ORGANIZATION ( #145, #1 ) ;
#138 = DIRECTION ( 'NONE',  ( -0.0000000000000000000, -0.0000000000000000000, -1.000000000000000000 ) ) ;
#139 = DIRECTION ( 'NONE',  ( -0.0000000000000000000, -0.0000000000000000000, -1.000000000000000000 ) ) ;
#140 = DIRECTION ( 'NONE',  ( 1.000000000000000000, 0.0000000000000000000, -0.0000000000000000000 ) ) ;
#141 = ORIENTED_EDGE ( 'NONE', *, *, #151, .T. ) ;
#142 = CC_DESIGN_SECURITY_CLASSIFICATION ( #33, ( #47 ) ) ;
#143 = LOCAL_TIME ( 16, 55, 4.000000000000000000, #42 ) ;
#144 = ORIENTED_EDGE ( 'NONE', *, *, #51, .F. ) ;
#145 = PERSON ( 'UNSPECIFIED', 'UNSPECIFIED', 'UNSPECIFIED', ('UNSPECIFIED'), ('UNSPECIFIED'), ('UNSPECIFIED') ) ;
#146 = APPROVAL_DATE_TIME ( #99, #44 ) ;
#147 = CYLINDRICAL_SURFACE ( 'NONE', #121, 25.39999999999999900 ) ;
#148 = DIRECTION ( 'NONE',  ( 0.0000000000000000000, 0.0000000000000000000, 1.000000000000000000 ) ) ;
#149 = ORIENTED_EDGE ( 'NONE', *, *, #38, .T. ) ;
#150 = VERTEX_POINT ( 'NONE', #40 ) ;
#151 = EDGE_CURVE ( 'NONE', #129, #112, #102, .T. ) ;
#152 = LOCAL_TIME ( 16, 55, 4.000000000000000000, #132 ) ;
#153 = CC_DESIGN_DATE_AND_TIME_ASSIGNMENT ( #100, #174, ( #118 ) ) ;
#154 = LOCAL_TIME ( 16, 55, 4.000000000000000000, #17 ) ;
#155 = EDGE_LOOP ( 'NONE', ( #158, #88, #31, #87 ) ) ;
#156 = FACE_OUTER_BOUND ( 'NONE', #5, .T. ) ;
#157 = APPROVAL_ROLE ( '' ) ;
#158 = ORIENTED_EDGE ( 'NONE', *, *, #72, .F. ) ;
#159 = DIRECTION ( 'NONE',  ( -0.0000000000000000000, -0.0000000000000000000, -1.000000000000000000 ) ) ;
#160 =( NAMED_UNIT ( * ) PLANE_ANGLE_UNIT ( ) SI_UNIT ( $, .RADIAN. ) );
#161 = APPLICATION_CONTEXT ( 'configuration controlled 3d designs of mechanical parts and assemblies' ) ;
#162 = DIRECTION ( 'NONE',  ( 1.000000000000000000, 0.0000000000000000000, 0.0000000000000000000 ) ) ;
#163 = MECHANICAL_CONTEXT ( 'NONE', #57, 'mechanical' ) ;
#164 = PLANE ( 'NONE',  #35 ) ;
#165 = COORDINATED_UNIVERSAL_TIME_OFFSET ( 5, 0, .BEHIND. ) ;
#166 = CIRCLE ( 'NONE', #68, 25.39999999999999900 ) ;
#167 = DESIGN_CONTEXT ( 'detailed design', #161, 'design' ) ;
#168 = APPROVAL_DATE_TIME ( #103, #4 ) ;
#169 = DIRECTION ( 'NONE',  ( -1.000000000000000000, 0.0000000000000000000, 0.0000000000000000000 ) ) ;
#170 = LOCAL_TIME ( 16, 55, 4.000000000000000000, #81 ) ;
#171 = CARTESIAN_POINT ( 'NONE',  ( 0.0000000000000000000, 0.0000000000000000000, 1.000000000000000000 ) ) ;
#172 = APPLICATION_PROTOCOL_DEFINITION ( 'international standard', 'config_control_design', 1994, #161 ) ;
#173 = APPROVAL_ROLE ( '' ) ;
#174 = DATE_TIME_ROLE ( 'creation_date' ) ;
#175 = VECTOR ( 'NONE', #159, 1000.000000000000000 ) ;
ENDSEC;
END-ISO-10303-21;
