ISO-10303-21;
HEADER;
FILE_DESCRIPTION (( 'STEP AP203' ),
    '1' );
FILE_NAME ('Web Model 62881.STEP',
    '2017-01-31T18:25:47',
    ( '' ),
    ( '' ),
    'SwSTEP 2.0',
    'SolidWorks 2016',
    '' );
FILE_SCHEMA (( 'CONFIG_CONTROL_DESIGN' ));
ENDSEC;

DATA;
#1 = CALENDAR_DATE ( 2017, 31, 1 ) ;
#2 = ORIENTED_EDGE ( 'NONE', *, *, #215, .T. ) ;
#3 = APPROVAL_STATUS ( 'not_yet_approved' ) ;
#4 = PERSON_AND_ORGANIZATION_ROLE ( 'creator' ) ;
#5 = PERSON_AND_ORGANIZATION ( #117, #70 ) ;
#6 = VECTOR ( 'NONE', #237, 1000.000000000000000 ) ;
#7 = PERSON_AND_ORGANIZATION_ROLE ( 'creator' ) ;
#8 = COORDINATED_UNIVERSAL_TIME_OFFSET ( 5, 0, .BEHIND. ) ;
#9 = VECTOR ( 'NONE', #190, 1000.000000000000000 ) ;
#10 = DESIGN_CONTEXT ( 'detailed design', #59, 'design' ) ;
#11 = FACE_OUTER_BOUND ( 'NONE', #119, .T. ) ;
#12 = ORIENTED_EDGE ( 'NONE', *, *, #22, .F. ) ;
#13 = EDGE_CURVE ( 'NONE', #41, #193, #51, .T. ) ;
#14 = LINE ( 'NONE', #95, #162 ) ;
#15 = DIRECTION ( 'NONE',  ( 0.0000000000000000000, -0.0000000000000000000, 1.000000000000000000 ) ) ;
#16 = DIRECTION ( 'NONE',  ( -0.0000000000000000000, 0.0000000000000000000, -1.000000000000000000 ) ) ;
#17 = VERTEX_POINT ( 'NONE', #236 ) ;
#18 = CARTESIAN_POINT ( 'NONE',  ( 37.50000000000000000, 25.00000000000000000, 0.0000000000000000000 ) ) ;
#19 = PERSON_AND_ORGANIZATION ( #117, #70 ) ;
#20 = VECTOR ( 'NONE', #199, 1000.000000000000000 ) ;
#21 = PERSON_AND_ORGANIZATION_ROLE ( 'design_supplier' ) ;
#22 = EDGE_CURVE ( 'NONE', #182, #100, #43, .T. ) ;
#23 =( NAMED_UNIT ( * ) SI_UNIT ( $, .STERADIAN. ) SOLID_ANGLE_UNIT ( ) );
#24 = CC_DESIGN_DATE_AND_TIME_ASSIGNMENT ( #219, #57, ( #82 ) ) ;
#25 = DIRECTION ( 'NONE',  ( 0.0000000000000000000, 0.0000000000000000000, 1.000000000000000000 ) ) ;
#26 = ADVANCED_FACE ( 'NONE', ( #30 ), #172, .T. ) ;
#27 = EDGE_LOOP ( 'NONE', ( #92, #177, #88, #151 ) ) ;
#28 =( LENGTH_UNIT ( ) NAMED_UNIT ( * ) SI_UNIT ( .MILLI., .METRE. ) );
#29 = AXIS2_PLACEMENT_3D ( 'NONE', #68, #54, #189 ) ;
#30 = FACE_OUTER_BOUND ( 'NONE', #27, .T. ) ;
#31 = LINE ( 'NONE', #120, #214 ) ;
#32 = UNCERTAINTY_MEASURE_WITH_UNIT (LENGTH_MEASURE( 1.000000000000000100E-005 ), #28, 'distance_accuracy_value', 'NONE');
#33 = EDGE_CURVE ( 'NONE', #136, #17, #228, .T. ) ;
#34 = DIRECTION ( 'NONE',  ( 0.0000000000000000000, -0.0000000000000000000, -1.000000000000000000 ) ) ;
#35 = FACE_OUTER_BOUND ( 'NONE', #39, .T. ) ;
#36 = EDGE_LOOP ( 'NONE', ( #131, #55, #2, #61 ) ) ;
#37 = CARTESIAN_POINT ( 'NONE',  ( -37.50000000000000000, 25.00000000000000000, -3.000000000000000000 ) ) ;
#38 = PLANE ( 'NONE',  #132 ) ;
#39 = EDGE_LOOP ( 'NONE', ( #234, #12, #134, #86 ) ) ;
#40 = APPROVAL_STATUS ( 'not_yet_approved' ) ;
#41 = VERTEX_POINT ( 'NONE', #192 ) ;
#42 = CARTESIAN_POINT ( 'NONE',  ( 37.50000000000000000, 25.00000000000000000, 0.0000000000000000000 ) ) ;
#43 = LINE ( 'NONE', #207, #209 ) ;
#44 = DIRECTION ( 'NONE',  ( -0.0000000000000000000, 1.000000000000000000, -0.0000000000000000000 ) ) ;
#45 = EDGE_CURVE ( 'NONE', #182, #221, #31, .T. ) ;
#46 = CALENDAR_DATE ( 2017, 31, 1 ) ;
#47 = COORDINATED_UNIVERSAL_TIME_OFFSET ( 5, 0, .BEHIND. ) ;
#48 = PRODUCT_DEFINITION ( 'UNKNOWN', '', #127, #10 ) ;
#49 = SHAPE_DEFINITION_REPRESENTATION ( #229, #164 ) ;
#50 = CARTESIAN_POINT ( 'NONE',  ( 37.50000000000000000, 25.00000000000000000, -3.000000000000000000 ) ) ;
#51 = LINE ( 'NONE', #158, #6 ) ;
#52 = CARTESIAN_POINT ( 'NONE',  ( -37.50000000000000000, -25.00000000000000000, 0.0000000000000000000 ) ) ;
#53 = DIRECTION ( 'NONE',  ( -0.0000000000000000000, 0.0000000000000000000, 1.000000000000000000 ) ) ;
#54 = DIRECTION ( 'NONE',  ( -0.0000000000000000000, 0.0000000000000000000, 1.000000000000000000 ) ) ;
#55 = ORIENTED_EDGE ( 'NONE', *, *, #118, .T. ) ;
#56 = CARTESIAN_POINT ( 'NONE',  ( 37.50000000000000000, -25.00000000000000000, -3.000000000000000000 ) ) ;
#57 = DATE_TIME_ROLE ( 'classification_date' ) ;
#58 = MECHANICAL_CONTEXT ( 'NONE', #175, 'mechanical' ) ;
#59 = APPLICATION_CONTEXT ( 'configuration controlled 3d designs of mechanical parts and assemblies' ) ;
#60 = PERSON_AND_ORGANIZATION ( #117, #70 ) ;
#61 = ORIENTED_EDGE ( 'NONE', *, *, #99, .T. ) ;
#62 = CARTESIAN_POINT ( 'NONE',  ( -37.50000000000000000, 25.00000000000000000, -3.000000000000000000 ) ) ;
#63 = DIRECTION ( 'NONE',  ( 0.0000000000000000000, 0.0000000000000000000, 1.000000000000000000 ) ) ;
#64 = LINE ( 'NONE', #146, #148 ) ;
#65 = ORIENTED_EDGE ( 'NONE', *, *, #202, .T. ) ;
#66 = PERSON_AND_ORGANIZATION ( #117, #70 ) ;
#67 = APPROVAL ( #40, 'UNSPECIFIED' ) ;
#68 = CARTESIAN_POINT ( 'NONE',  ( -37.50000000000000000, -25.00000000000000000, -3.000000000000000000 ) ) ;
#69 = APPROVAL_PERSON_ORGANIZATION ( #19, #67, #163 ) ;
#70 = ORGANIZATION ( 'UNSPECIFIED', 'UNSPECIFIED', '' ) ;
#71 = PLANE ( 'NONE',  #227 ) ;
#72 = DIRECTION ( 'NONE',  ( 1.000000000000000000, 0.0000000000000000000, 0.0000000000000000000 ) ) ;
#73 = CARTESIAN_POINT ( 'NONE',  ( -37.50000000000000000, 25.00000000000000000, 0.0000000000000000000 ) ) ;
#74 = CC_DESIGN_PERSON_AND_ORGANIZATION_ASSIGNMENT ( #187, #176, ( #82 ) ) ;
#75 = VECTOR ( 'NONE', #44, 1000.000000000000000 ) ;
#76 = APPROVAL_STATUS ( 'not_yet_approved' ) ;
#77 = LOCAL_TIME ( 13, 25, 47.00000000000000000, #93 ) ;
#78 = DATE_AND_TIME ( #130, #191 ) ;
#79 = ORIENTED_EDGE ( 'NONE', *, *, #13, .F. ) ;
#80 = APPROVAL ( #3, 'UNSPECIFIED' ) ;
#81 = FACE_OUTER_BOUND ( 'NONE', #183, .T. ) ;
#82 = SECURITY_CLASSIFICATION ( '', '', #145 ) ;
#83 = APPROVAL_PERSON_ORGANIZATION ( #66, #186, #216 ) ;
#84 = ORIENTED_EDGE ( 'NONE', *, *, #230, .T. ) ;
#85 = CC_DESIGN_SECURITY_CLASSIFICATION ( #82, ( #127 ) ) ;
#86 = ORIENTED_EDGE ( 'NONE', *, *, #197, .T. ) ;
#87 = DIRECTION ( 'NONE',  ( 0.0000000000000000000, 1.000000000000000000, 0.0000000000000000000 ) ) ;
#88 = ORIENTED_EDGE ( 'NONE', *, *, #211, .T. ) ;
#89 = CARTESIAN_POINT ( 'NONE',  ( 37.50000000000000000, -25.00000000000000000, -3.000000000000000000 ) ) ;
#90 = CC_DESIGN_APPROVAL ( #67, ( #127 ) ) ;
#91 = CARTESIAN_POINT ( 'NONE',  ( -37.50000000000000000, -25.00000000000000000, -3.000000000000000000 ) ) ;
#92 = ORIENTED_EDGE ( 'NONE', *, *, #215, .F. ) ;
#93 = COORDINATED_UNIVERSAL_TIME_OFFSET ( 5, 0, .BEHIND. ) ;
#94 = ORIENTED_EDGE ( 'NONE', *, *, #45, .F. ) ;
#95 = CARTESIAN_POINT ( 'NONE',  ( 37.50000000000000000, 25.00000000000000000, -3.000000000000000000 ) ) ;
#96 = PERSON_AND_ORGANIZATION_ROLE ( 'design_owner' ) ;
#97 = CARTESIAN_POINT ( 'NONE',  ( 0.0000000000000000000, 0.0000000000000000000, 0.0000000000000000000 ) ) ;
#98 = ADVANCED_FACE ( 'NONE', ( #81 ), #188, .T. ) ;
#99 = EDGE_CURVE ( 'NONE', #193, #100, #204, .T. ) ;
#100 = VERTEX_POINT ( 'NONE', #73 ) ;
#101 = PRODUCT ( 'Web Model 62881', 'Web Model 62881', '', ( #58 ) ) ;
#102 = PERSON_AND_ORGANIZATION ( #117, #70 ) ;
#103 = ORIENTED_EDGE ( 'NONE', *, *, #22, .T. ) ;
#104 = AXIS2_PLACEMENT_3D ( 'NONE', #50, #142, #16 ) ;
#105 = LINE ( 'NONE', #52, #9 ) ;
#106 = CARTESIAN_POINT ( 'NONE',  ( -37.50000000000000000, 25.00000000000000000, -3.000000000000000000 ) ) ;
#107 = EDGE_CURVE ( 'NONE', #100, #171, #198, .T. ) ;
#108 = APPROVAL_ROLE ( '' ) ;
#109 = LINE ( 'NONE', #42, #75 ) ;
#110 = APPLICATION_PROTOCOL_DEFINITION ( 'international standard', 'config_control_design', 1994, #175 ) ;
#111 = VECTOR ( 'NONE', #25, 1000.000000000000000 ) ;
#112 = ORIENTED_EDGE ( 'NONE', *, *, #197, .F. ) ;
#113 = ADVANCED_FACE ( 'NONE', ( #226 ), #38, .T. ) ;
#114 = DIRECTION ( 'NONE',  ( 0.0000000000000000000, 0.0000000000000000000, 1.000000000000000000 ) ) ;
#115 =( GEOMETRIC_REPRESENTATION_CONTEXT ( 3 ) GLOBAL_UNCERTAINTY_ASSIGNED_CONTEXT ( ( #32 ) ) GLOBAL_UNIT_ASSIGNED_CONTEXT ( ( #28, #166, #23 ) ) REPRESENTATION_CONTEXT ( 'NONE', 'WORKASPACE' ) );
#116 = DATE_AND_TIME ( #1, #77 ) ;
#117 = PERSON ( 'UNSPECIFIED', 'UNSPECIFIED', 'UNSPECIFIED', ('UNSPECIFIED'), ('UNSPECIFIED'), ('UNSPECIFIED') ) ;
#118 = EDGE_CURVE ( 'NONE', #171, #17, #105, .T. ) ;
#119 = EDGE_LOOP ( 'NONE', ( #94, #167, #185, #169 ) ) ;
#120 = CARTESIAN_POINT ( 'NONE',  ( -37.50000000000000000, 25.00000000000000000, -3.000000000000000000 ) ) ;
#121 = APPROVAL_DATE_TIME ( #78, #80 ) ;
#122 = CARTESIAN_POINT ( 'NONE',  ( -37.50000000000000000, -25.00000000000000000, 0.0000000000000000000 ) ) ;
#123 = VECTOR ( 'NONE', #235, 1000.000000000000000 ) ;
#124 = AXIS2_PLACEMENT_3D ( 'NONE', #97, #114, #194 ) ;
#125 = CARTESIAN_POINT ( 'NONE',  ( -37.50000000000000000, 25.00000000000000000, 0.0000000000000000000 ) ) ;
#126 = ORIENTED_EDGE ( 'NONE', *, *, #118, .F. ) ;
#127 = PRODUCT_DEFINITION_FORMATION_WITH_SPECIFIED_SOURCE ( 'ANY', '', #101, .NOT_KNOWN. ) ;
#128 = COORDINATED_UNIVERSAL_TIME_OFFSET ( 5, 0, .BEHIND. ) ;
#129 = DIRECTION ( 'NONE',  ( 1.000000000000000000, 0.0000000000000000000, 0.0000000000000000000 ) ) ;
#130 = CALENDAR_DATE ( 2017, 31, 1 ) ;
#131 = ORIENTED_EDGE ( 'NONE', *, *, #107, .T. ) ;
#132 = AXIS2_PLACEMENT_3D ( 'NONE', #140, #210, #34 ) ;
#133 = CC_DESIGN_DATE_AND_TIME_ASSIGNMENT ( #205, #178, ( #48 ) ) ;
#134 = ORIENTED_EDGE ( 'NONE', *, *, #45, .T. ) ;
#135 = DIRECTION ( 'NONE',  ( -1.000000000000000000, 0.0000000000000000000, 0.0000000000000000000 ) ) ;
#136 = VERTEX_POINT ( 'NONE', #89 ) ;
#137 = EDGE_LOOP ( 'NONE', ( #126, #112, #65, #165 ) ) ;
#138 = LOCAL_TIME ( 13, 25, 47.00000000000000000, #47 ) ;
#139 = VECTOR ( 'NONE', #174, 1000.000000000000000 ) ;
#140 = CARTESIAN_POINT ( 'NONE',  ( -37.50000000000000000, -25.00000000000000000, -3.000000000000000000 ) ) ;
#141 = CC_DESIGN_PERSON_AND_ORGANIZATION_ASSIGNMENT ( #213, #21, ( #127 ) ) ;
#142 = DIRECTION ( 'NONE',  ( 1.000000000000000000, 0.0000000000000000000, -0.0000000000000000000 ) ) ;
#143 = DIRECTION ( 'NONE',  ( 0.0000000000000000000, 0.0000000000000000000, 1.000000000000000000 ) ) ;
#144 = ORIENTED_EDGE ( 'NONE', *, *, #99, .F. ) ;
#145 = SECURITY_CLASSIFICATION_LEVEL ( 'unclassified' ) ;
#146 = CARTESIAN_POINT ( 'NONE',  ( -37.50000000000000000, -25.00000000000000000, -3.000000000000000000 ) ) ;
#147 = DATE_AND_TIME ( #232, #138 ) ;
#148 = VECTOR ( 'NONE', #129, 1000.000000000000000 ) ;
#149 = APPLICATION_PROTOCOL_DEFINITION ( 'international standard', 'config_control_design', 1994, #59 ) ;
#150 = ADVANCED_FACE ( 'NONE', ( #11 ), #159, .F. ) ;
#151 = ORIENTED_EDGE ( 'NONE', *, *, #13, .T. ) ;
#152 = DIRECTION ( 'NONE',  ( -0.0000000000000000000, 1.000000000000000000, -0.0000000000000000000 ) ) ;
#153 = LINE ( 'NONE', #62, #20 ) ;
#154 = AXIS2_PLACEMENT_3D ( 'NONE', #106, #87, #15 ) ;
#155 = FACE_OUTER_BOUND ( 'NONE', #36, .T. ) ;
#156 = VECTOR ( 'NONE', #233, 1000.000000000000000 ) ;
#157 = PRODUCT_RELATED_PRODUCT_CATEGORY ( 'detail', '', ( #101 ) ) ;
#158 = CARTESIAN_POINT ( 'NONE',  ( 37.50000000000000000, 25.00000000000000000, -3.000000000000000000 ) ) ;
#159 = PLANE ( 'NONE',  #29 ) ;
#160 = CARTESIAN_POINT ( 'NONE',  ( -37.50000000000000000, -25.00000000000000000, 0.0000000000000000000 ) ) ;
#161 = LOCAL_TIME ( 13, 25, 47.00000000000000000, #128 ) ;
#162 = VECTOR ( 'NONE', #152, 1000.000000000000000 ) ;
#163 = APPROVAL_ROLE ( '' ) ;
#164 = ADVANCED_BREP_SHAPE_REPRESENTATION ( 'Web Model 62881', ( #170, #124 ), #115 ) ;
#165 = ORIENTED_EDGE ( 'NONE', *, *, #33, .T. ) ;
#166 =( NAMED_UNIT ( * ) PLANE_ANGLE_UNIT ( ) SI_UNIT ( $, .RADIAN. ) );
#167 = ORIENTED_EDGE ( 'NONE', *, *, #230, .F. ) ;
#168 = CALENDAR_DATE ( 2017, 31, 1 ) ;
#169 = ORIENTED_EDGE ( 'NONE', *, *, #202, .F. ) ;
#170 = MANIFOLD_SOLID_BREP ( 'Extrude1', #225 ) ;
#171 = VERTEX_POINT ( 'NONE', #122 ) ;
#172 = PLANE ( 'NONE',  #104 ) ;
#173 = LINE ( 'NONE', #91, #111 ) ;
#174 = DIRECTION ( 'NONE',  ( 0.0000000000000000000, 0.0000000000000000000, 1.000000000000000000 ) ) ;
#175 = APPLICATION_CONTEXT ( 'configuration controlled 3d designs of mechanical parts and assemblies' ) ;
#176 = PERSON_AND_ORGANIZATION_ROLE ( 'classification_officer' ) ;
#177 = ORIENTED_EDGE ( 'NONE', *, *, #33, .F. ) ;
#178 = DATE_TIME_ROLE ( 'creation_date' ) ;
#179 = CARTESIAN_POINT ( 'NONE',  ( -37.50000000000000000, 25.00000000000000000, -3.000000000000000000 ) ) ;
#180 = ADVANCED_FACE ( 'NONE', ( #155 ), #71, .T. ) ;
#181 = APPROVAL_DATE_TIME ( #147, #186 ) ;
#182 = VERTEX_POINT ( 'NONE', #37 ) ;
#183 = EDGE_LOOP ( 'NONE', ( #144, #79, #84, #103 ) ) ;
#184 = CC_DESIGN_PERSON_AND_ORGANIZATION_ASSIGNMENT ( #5, #96, ( #101 ) ) ;
#185 = ORIENTED_EDGE ( 'NONE', *, *, #211, .F. ) ;
#186 = APPROVAL ( #76, 'UNSPECIFIED' ) ;
#187 = PERSON_AND_ORGANIZATION ( #117, #70 ) ;
#188 = PLANE ( 'NONE',  #154 ) ;
#189 = DIRECTION ( 'NONE',  ( 1.000000000000000000, 0.0000000000000000000, 0.0000000000000000000 ) ) ;
#190 = DIRECTION ( 'NONE',  ( 1.000000000000000000, 0.0000000000000000000, 0.0000000000000000000 ) ) ;
#191 = LOCAL_TIME ( 13, 25, 47.00000000000000000, #8 ) ;
#192 = CARTESIAN_POINT ( 'NONE',  ( 37.50000000000000000, 25.00000000000000000, -3.000000000000000000 ) ) ;
#193 = VERTEX_POINT ( 'NONE', #18 ) ;
#194 = DIRECTION ( 'NONE',  ( 1.000000000000000000, 0.0000000000000000000, 0.0000000000000000000 ) ) ;
#195 = CC_DESIGN_PERSON_AND_ORGANIZATION_ASSIGNMENT ( #102, #7, ( #48 ) ) ;
#196 = APPROVAL_PERSON_ORGANIZATION ( #60, #80, #108 ) ;
#197 = EDGE_CURVE ( 'NONE', #221, #171, #173, .T. ) ;
#198 = LINE ( 'NONE', #212, #156 ) ;
#199 = DIRECTION ( 'NONE',  ( -1.000000000000000000, -0.0000000000000000000, -0.0000000000000000000 ) ) ;
#200 = APPROVAL_DATE_TIME ( #116, #67 ) ;
#201 = PLANE ( 'NONE',  #217 ) ;
#202 = EDGE_CURVE ( 'NONE', #221, #136, #64, .T. ) ;
#203 = CC_DESIGN_APPROVAL ( #80, ( #48 ) ) ;
#204 = LINE ( 'NONE', #125, #123 ) ;
#205 = DATE_AND_TIME ( #168, #220 ) ;
#206 = COORDINATED_UNIVERSAL_TIME_OFFSET ( 5, 0, .BEHIND. ) ;
#207 = CARTESIAN_POINT ( 'NONE',  ( -37.50000000000000000, 25.00000000000000000, -3.000000000000000000 ) ) ;
#208 = DIRECTION ( 'NONE',  ( 0.0000000000000000000, -1.000000000000000000, 0.0000000000000000000 ) ) ;
#209 = VECTOR ( 'NONE', #143, 1000.000000000000000 ) ;
#210 = DIRECTION ( 'NONE',  ( 0.0000000000000000000, -1.000000000000000000, 0.0000000000000000000 ) ) ;
#211 = EDGE_CURVE ( 'NONE', #136, #41, #14, .T. ) ;
#212 = CARTESIAN_POINT ( 'NONE',  ( -37.50000000000000000, 25.00000000000000000, 0.0000000000000000000 ) ) ;
#213 = PERSON_AND_ORGANIZATION ( #117, #70 ) ;
#214 = VECTOR ( 'NONE', #208, 1000.000000000000000 ) ;
#215 = EDGE_CURVE ( 'NONE', #17, #193, #109, .T. ) ;
#216 = APPROVAL_ROLE ( '' ) ;
#217 = AXIS2_PLACEMENT_3D ( 'NONE', #179, #135, #63 ) ;
#218 = CARTESIAN_POINT ( 'NONE',  ( -37.50000000000000000, -25.00000000000000000, -3.000000000000000000 ) ) ;
#219 = DATE_AND_TIME ( #46, #161 ) ;
#220 = LOCAL_TIME ( 13, 25, 47.00000000000000000, #206 ) ;
#221 = VERTEX_POINT ( 'NONE', #218 ) ;
#222 = ADVANCED_FACE ( 'NONE', ( #35 ), #201, .T. ) ;
#223 = CC_DESIGN_PERSON_AND_ORGANIZATION_ASSIGNMENT ( #224, #4, ( #127 ) ) ;
#224 = PERSON_AND_ORGANIZATION ( #117, #70 ) ;
#225 = CLOSED_SHELL ( 'NONE', ( #222, #98, #26, #113, #150, #180 ) ) ;
#226 = FACE_OUTER_BOUND ( 'NONE', #137, .T. ) ;
#227 = AXIS2_PLACEMENT_3D ( 'NONE', #160, #53, #72 ) ;
#228 = LINE ( 'NONE', #56, #139 ) ;
#229 = PRODUCT_DEFINITION_SHAPE ( 'NONE', 'NONE',  #48 ) ;
#230 = EDGE_CURVE ( 'NONE', #41, #182, #153, .T. ) ;
#231 = CC_DESIGN_APPROVAL ( #186, ( #82 ) ) ;
#232 = CALENDAR_DATE ( 2017, 31, 1 ) ;
#233 = DIRECTION ( 'NONE',  ( 0.0000000000000000000, -1.000000000000000000, 0.0000000000000000000 ) ) ;
#234 = ORIENTED_EDGE ( 'NONE', *, *, #107, .F. ) ;
#235 = DIRECTION ( 'NONE',  ( -1.000000000000000000, -0.0000000000000000000, -0.0000000000000000000 ) ) ;
#236 = CARTESIAN_POINT ( 'NONE',  ( 37.50000000000000000, -25.00000000000000000, 0.0000000000000000000 ) ) ;
#237 = DIRECTION ( 'NONE',  ( 0.0000000000000000000, 0.0000000000000000000, 1.000000000000000000 ) ) ;
ENDSEC;
END-ISO-10303-21;
