ISO-10303-21;
HEADER;
FILE_DESCRIPTION (( 'STEP AP203' ),
    '1' );
FILE_NAME ('step_65606.step',
    '2014-06-05T18:40:33',
    ( '' ),
    ( '' ),
    'SwSTEP 2.0',
    'SolidWorks 2014',
    '' );
FILE_SCHEMA (( 'CONFIG_CONTROL_DESIGN' ));
ENDSEC;

DATA;
#1 = CC_DESIGN_APPROVAL ( #5, ( #13 ) ) ;
#2 = DIRECTION ( 'NONE',  ( -0.0000000000000000000, -0.0000000000000000000, -1.000000000000000000 ) ) ;
#3 = SECURITY_CLASSIFICATION_LEVEL ( 'unclassified' ) ;
#4 = ORIENTED_EDGE ( 'NONE', *, *, #73, .T. ) ;
#5 = APPROVAL ( #195, 'UNSPECIFIED' ) ;
#6 = LINE ( 'NONE', #291, #276 ) ;
#7 = ORIENTED_EDGE ( 'NONE', *, *, #269, .F. ) ;
#8 = CC_DESIGN_DATE_AND_TIME_ASSIGNMENT ( #232, #74, ( #13 ) ) ;
#9 = CALENDAR_DATE ( 2014, 5, 6 ) ;
#10 = VERTEX_POINT ( 'NONE', #278 ) ;
#11 = ORIENTED_EDGE ( 'NONE', *, *, #166, .T. ) ;
#12 = CC_DESIGN_PERSON_AND_ORGANIZATION_ASSIGNMENT ( #263, #310, ( #13 ) ) ;
#13 = SECURITY_CLASSIFICATION ( '', '', #3 ) ;
#14 = EDGE_LOOP ( 'NONE', ( #175, #53, #228 ) ) ;
#15 = COORDINATED_UNIVERSAL_TIME_OFFSET ( 7, 0, .BEHIND. ) ;
#16 = DIRECTION ( 'NONE',  ( 1.000000000000000000, 0.0000000000000000000, 0.0000000000000000000 ) ) ;
#17 = CC_DESIGN_PERSON_AND_ORGANIZATION_ASSIGNMENT ( #221, #48, ( #29 ) ) ;
#18 = CC_DESIGN_PERSON_AND_ORGANIZATION_ASSIGNMENT ( #184, #57, ( #29 ) ) ;
#19 = VECTOR ( 'NONE', #200, 1000.000000000000100 ) ;
#20 = DIRECTION ( 'NONE',  ( -0.7071067811865474600, -0.7071067811865474600, -0.0000000000000000000 ) ) ;
#21 = DIRECTION ( 'NONE',  ( -2.775557561562891800E-016, 1.000000000000000000, -0.0000000000000000000 ) ) ;
#22 = CC_DESIGN_APPROVAL ( #27, ( #29 ) ) ;
#23 = DIRECTION ( 'NONE',  ( 1.000000000000000000, 0.0000000000000000000, -0.0000000000000000000 ) ) ;
#24 = ORIENTED_EDGE ( 'NONE', *, *, #243, .F. ) ;
#25 = DIRECTION ( 'NONE',  ( 1.000000000000000000, 1.877481598344347700E-016, -0.0000000000000000000 ) ) ;
#26 = LOCAL_TIME ( 11, 40, 33.00000000000000000, #133 ) ;
#27 = APPROVAL ( #66, 'UNSPECIFIED' ) ;
#28 = EDGE_LOOP ( 'NONE', ( #160, #7, #90, #56 ) ) ;
#29 = PRODUCT_DEFINITION_FORMATION_WITH_SPECIFIED_SOURCE ( 'ANY', '', #298, .NOT_KNOWN. ) ;
#30 = FACE_OUTER_BOUND ( 'NONE', #151, .T. ) ;
#31 = PLANE ( 'NONE',  #258 ) ;
#32 = FACE_OUTER_BOUND ( 'NONE', #204, .T. ) ;
#33 = DESIGN_CONTEXT ( 'detailed design', #137, 'design' ) ;
#34 = CARTESIAN_POINT ( 'NONE',  ( 50.00000000000000000, 50.00000000000000000, 0.0000000000000000000 ) ) ;
#35 = ORIENTED_EDGE ( 'NONE', *, *, #120, .F. ) ;
#36 = ORIENTED_EDGE ( 'NONE', *, *, #289, .T. ) ;
#37 = CC_DESIGN_DATE_AND_TIME_ASSIGNMENT ( #248, #92, ( #54 ) ) ;
#38 = APPROVAL_DATE_TIME ( #178, #52 ) ;
#39 = CC_DESIGN_PERSON_AND_ORGANIZATION_ASSIGNMENT ( #50, #94, ( #54 ) ) ;
#40 = CARTESIAN_POINT ( 'NONE',  ( 50.00000000000000000, 50.00000000000000000, 50.00000000000000000 ) ) ;
#41 = ADVANCED_BREP_SHAPE_REPRESENTATION ( 'step_65606', ( #306, #174, #60 ), #95 ) ;
#42 = VERTEX_POINT ( 'NONE', #89 ) ;
#43 = FACE_OUTER_BOUND ( 'NONE', #68, .T. ) ;
#44 = VECTOR ( 'NONE', #121, 1000.000000000000000 ) ;
#45 = ADVANCED_FACE ( 'NONE', ( #294 ), #214, .F. ) ;
#46 = CC_DESIGN_APPROVAL ( #52, ( #54 ) ) ;
#47 = LINE ( 'NONE', #301, #101 ) ;
#48 = PERSON_AND_ORGANIZATION_ROLE ( 'design_supplier' ) ;
#49 = VECTOR ( 'NONE', #109, 1000.000000000000100 ) ;
#50 = PERSON_AND_ORGANIZATION ( #247, #213 ) ;
#51 = LINE ( 'NONE', #216, #136 ) ;
#52 = APPROVAL ( #107, 'UNSPECIFIED' ) ;
#53 = ORIENTED_EDGE ( 'NONE', *, *, #181, .F. ) ;
#54 = PRODUCT_DEFINITION ( 'UNKNOWN', '', #29, #33 ) ;
#55 = CARTESIAN_POINT ( 'NONE',  ( 0.0000000000000000000, 0.0000000000000000000, 0.0000000000000000000 ) ) ;
#56 = ORIENTED_EDGE ( 'NONE', *, *, #196, .T. ) ;
#57 = PERSON_AND_ORGANIZATION_ROLE ( 'creator' ) ;
#58 = CC_DESIGN_PERSON_AND_ORGANIZATION_ASSIGNMENT ( #220, #145, ( #298 ) ) ;
#59 = APPROVAL_ROLE ( '' ) ;
#60 = AXIS2_PLACEMENT_3D ( 'NONE', #267, #177, #159 ) ;
#61 = FACE_OUTER_BOUND ( 'NONE', #189, .T. ) ;
#62 = DIRECTION ( 'NONE',  ( 0.0000000000000000000, 0.0000000000000000000, -1.000000000000000000 ) ) ;
#63 = VERTEX_POINT ( 'NONE', #218 ) ;
#64 = DIRECTION ( 'NONE',  ( 0.0000000000000000000, 0.0000000000000000000, -1.000000000000000000 ) ) ;
#65 = EDGE_CURVE ( 'NONE', #63, #42, #51, .T. ) ;
#66 = APPROVAL_STATUS ( 'not_yet_approved' ) ;
#67 = DIRECTION ( 'NONE',  ( -1.000000000000000000, -0.0000000000000000000, -0.0000000000000000000 ) ) ;
#68 = EDGE_LOOP ( 'NONE', ( #11, #132, #130 ) ) ;
#69 = LINE ( 'NONE', #285, #108 ) ;
#70 = ADVANCED_FACE ( 'NONE', ( #30 ), #280, .F. ) ;
#71 = DIRECTION ( 'NONE',  ( 0.7071067811865474600, 0.7071067811865474600, 0.0000000000000000000 ) ) ;
#72 = CARTESIAN_POINT ( 'NONE',  ( 50.00000000000000000, 50.00000000000000000, 50.00000000000000000 ) ) ;
#73 = EDGE_CURVE ( 'NONE', #167, #207, #161, .T. ) ;
#74 = DATE_TIME_ROLE ( 'classification_date' ) ;
#75 = ORIENTED_EDGE ( 'NONE', *, *, #196, .F. ) ;
#76 = APPROVAL_DATE_TIME ( #154, #5 ) ;
#77 = DIRECTION ( 'NONE',  ( 0.7071067811865474600, 0.7071067811865474600, -0.0000000000000000000 ) ) ;
#78 = PLANE ( 'NONE',  #172 ) ;
#79 = DIRECTION ( 'NONE',  ( 1.000000000000000000, 0.0000000000000000000, -0.0000000000000000000 ) ) ;
#80 = CC_DESIGN_SECURITY_CLASSIFICATION ( #13, ( #29 ) ) ;
#81 = LINE ( 'NONE', #91, #155 ) ;
#82 = DIRECTION ( 'NONE',  ( -1.000000000000000000, 0.0000000000000000000, 0.0000000000000000000 ) ) ;
#83 = DIRECTION ( 'NONE',  ( -1.000000000000000000, -2.775557561562891800E-016, 0.0000000000000000000 ) ) ;
#84 = PRODUCT_RELATED_PRODUCT_CATEGORY ( 'detail', '', ( #298 ) ) ;
#85 = CARTESIAN_POINT ( 'NONE',  ( 0.0000000000000000000, 0.0000000000000000000, 0.0000000000000000000 ) ) ;
#86 = APPROVAL_PERSON_ORGANIZATION ( #162, #5, #190 ) ;
#87 = VECTOR ( 'NONE', #20, 1000.000000000000100 ) ;
#88 = AXIS2_PLACEMENT_3D ( 'NONE', #153, #16, #64 ) ;
#89 = CARTESIAN_POINT ( 'NONE',  ( 0.0000000000000000000, 0.0000000000000000000, 50.00000000000000000 ) ) ;
#90 = ORIENTED_EDGE ( 'NONE', *, *, #112, .F. ) ;
#91 = CARTESIAN_POINT ( 'NONE',  ( 0.0000000000000000000, 50.00000000000000000, 50.00000000000000000 ) ) ;
#92 = DATE_TIME_ROLE ( 'creation_date' ) ;
#93 = PLANE ( 'NONE',  #88 ) ;
#94 = PERSON_AND_ORGANIZATION_ROLE ( 'creator' ) ;
#95 =( GEOMETRIC_REPRESENTATION_CONTEXT ( 3 ) GLOBAL_UNCERTAINTY_ASSIGNED_CONTEXT ( ( #104 ) ) GLOBAL_UNIT_ASSIGNED_CONTEXT ( ( #252, #219, #208 ) ) REPRESENTATION_CONTEXT ( 'NONE', 'WORKASPACE' ) );
#96 = ORIENTED_EDGE ( 'NONE', *, *, #166, .F. ) ;
#97 = ORIENTED_EDGE ( 'NONE', *, *, #319, .F. ) ;
#98 = AXIS2_PLACEMENT_3D ( 'NONE', #128, #148, #82 ) ;
#99 = ADVANCED_FACE ( 'NONE', ( #256 ), #31, .F. ) ;
#100 = LOCAL_TIME ( 11, 40, 33.00000000000000000, #313 ) ;
#101 = VECTOR ( 'NONE', #292, 1000.000000000000000 ) ;
#102 = LINE ( 'NONE', #193, #19 ) ;
#103 = CARTESIAN_POINT ( 'NONE',  ( 0.0000000000000000000, 50.00000000000000000, 50.00000000000000000 ) ) ;
#104 = UNCERTAINTY_MEASURE_WITH_UNIT (LENGTH_MEASURE( 1.000000000000000100E-005 ), #252, 'distance_accuracy_value', 'NONE');
#105 = VERTEX_POINT ( 'NONE', #231 ) ;
#106 = CARTESIAN_POINT ( 'NONE',  ( 0.0000000000000000000, 0.0000000000000000000, 0.0000000000000000000 ) ) ;
#107 = APPROVAL_STATUS ( 'not_yet_approved' ) ;
#108 = VECTOR ( 'NONE', #225, 1000.000000000000000 ) ;
#109 = DIRECTION ( 'NONE',  ( 0.7071067811865474600, 0.7071067811865474600, -0.0000000000000000000 ) ) ;
#110 = AXIS2_PLACEMENT_3D ( 'NONE', #187, #320, #23 ) ;
#111 = CARTESIAN_POINT ( 'NONE',  ( 0.0000000000000000000, 0.0000000000000000000, 50.00000000000000000 ) ) ;
#112 = EDGE_CURVE ( 'NONE', #305, #167, #261, .T. ) ;
#113 = DIRECTION ( 'NONE',  ( -0.0000000000000000000, -0.0000000000000000000, -1.000000000000000000 ) ) ;
#114 = ORIENTED_EDGE ( 'NONE', *, *, #289, .F. ) ;
#115 = ORIENTED_EDGE ( 'NONE', *, *, #269, .T. ) ;
#116 = APPLICATION_PROTOCOL_DEFINITION ( 'international standard', 'config_control_design', 1994, #137 ) ;
#117 = DIRECTION ( 'NONE',  ( 0.7071067811865475700, -0.7071067811865475700, 0.0000000000000000000 ) ) ;
#118 = ORIENTED_EDGE ( 'NONE', *, *, #290, .F. ) ;
#119 = ORIENTED_EDGE ( 'NONE', *, *, #290, .T. ) ;
#120 = EDGE_CURVE ( 'NONE', #42, #215, #134, .T. ) ;
#121 = DIRECTION ( 'NONE',  ( -0.0000000000000000000, -0.0000000000000000000, -1.000000000000000000 ) ) ;
#122 = ORIENTED_EDGE ( 'NONE', *, *, #264, .T. ) ;
#123 = CARTESIAN_POINT ( 'NONE',  ( 50.00000000000001400, 9.387407991721742200E-015, 50.00000000000000000 ) ) ;
#124 = VERTEX_POINT ( 'NONE', #321 ) ;
#125 = VECTOR ( 'NONE', #113, 1000.000000000000000 ) ;
#126 = LINE ( 'NONE', #173, #246 ) ;
#127 = ORIENTED_EDGE ( 'NONE', *, *, #120, .T. ) ;
#128 = CARTESIAN_POINT ( 'NONE',  ( 0.0000000000000000000, 0.0000000000000000000, 50.00000000000000000 ) ) ;
#129 = CARTESIAN_POINT ( 'NONE',  ( 0.0000000000000000000, 0.0000000000000000000, 0.0000000000000000000 ) ) ;
#130 = ORIENTED_EDGE ( 'NONE', *, *, #65, .T. ) ;
#131 = FACE_OUTER_BOUND ( 'NONE', #266, .T. ) ;
#132 = ORIENTED_EDGE ( 'NONE', *, *, #259, .T. ) ;
#133 = COORDINATED_UNIVERSAL_TIME_OFFSET ( 7, 0, .BEHIND. ) ;
#134 = LINE ( 'NONE', #254, #125 ) ;
#135 = APPROVAL_DATE_TIME ( #210, #27 ) ;
#136 = VECTOR ( 'NONE', #224, 1000.000000000000000 ) ;
#137 = APPLICATION_CONTEXT ( 'configuration controlled 3d designs of mechanical parts and assemblies' ) ;
#138 = CARTESIAN_POINT ( 'NONE',  ( 50.00000000000000000, 50.00000000000000000, 50.00000000000000000 ) ) ;
#139 = CLOSED_SHELL ( 'NONE', ( #45, #183, #99, #274, #205 ) ) ;
#140 = DIRECTION ( 'NONE',  ( -0.7071067811865474600, -0.7071067811865474600, 0.0000000000000000000 ) ) ;
#141 = ORIENTED_EDGE ( 'NONE', *, *, #283, .T. ) ;
#142 = CARTESIAN_POINT ( 'NONE',  ( 50.00000000000000000, 50.00000000000000000, 50.00000000000000000 ) ) ;
#143 = CARTESIAN_POINT ( 'NONE',  ( 50.00000000000001400, 9.387407991721742200E-015, 0.0000000000000000000 ) ) ;
#144 = PLANE ( 'NONE',  #188 ) ;
#145 = PERSON_AND_ORGANIZATION_ROLE ( 'design_owner' ) ;
#146 = AXIS2_PLACEMENT_3D ( 'NONE', #40, #169, #140 ) ;
#147 = DIRECTION ( 'NONE',  ( -0.0000000000000000000, -1.000000000000000000, -0.0000000000000000000 ) ) ;
#148 = DIRECTION ( 'NONE',  ( 0.0000000000000000000, 0.0000000000000000000, -1.000000000000000000 ) ) ;
#149 = VECTOR ( 'NONE', #77, 1000.000000000000100 ) ;
#150 = MECHANICAL_CONTEXT ( 'NONE', #180, 'mechanical' ) ;
#151 = EDGE_LOOP ( 'NONE', ( #223, #24, #270, #122 ) ) ;
#152 = CARTESIAN_POINT ( 'NONE',  ( 0.0000000000000000000, 0.0000000000000000000, 50.00000000000000000 ) ) ;
#153 = CARTESIAN_POINT ( 'NONE',  ( 0.0000000000000000000, 0.0000000000000000000, 50.00000000000000000 ) ) ;
#154 = DATE_AND_TIME ( #222, #277 ) ;
#155 = VECTOR ( 'NONE', #2, 1000.000000000000000 ) ;
#156 = ORIENTED_EDGE ( 'NONE', *, *, #73, .F. ) ;
#157 = ADVANCED_FACE ( 'NONE', ( #194 ), #286, .T. ) ;
#158 = COORDINATED_UNIVERSAL_TIME_OFFSET ( 7, 0, .BEHIND. ) ;
#159 = DIRECTION ( 'NONE',  ( 1.000000000000000000, 0.0000000000000000000, 0.0000000000000000000 ) ) ;
#160 = ORIENTED_EDGE ( 'NONE', *, *, #281, .T. ) ;
#161 = LINE ( 'NONE', #142, #295 ) ;
#162 = PERSON_AND_ORGANIZATION ( #247, #213 ) ;
#163 = CALENDAR_DATE ( 2014, 5, 6 ) ;
#164 = VECTOR ( 'NONE', #170, 1000.000000000000000 ) ;
#165 = CARTESIAN_POINT ( 'NONE',  ( 50.00000000000000000, 50.00000000000000000, 0.0000000000000000000 ) ) ;
#166 = EDGE_CURVE ( 'NONE', #42, #241, #226, .T. ) ;
#167 = VERTEX_POINT ( 'NONE', #316 ) ;
#168 = SHAPE_DEFINITION_REPRESENTATION ( #238, #41 ) ;
#169 = DIRECTION ( 'NONE',  ( -0.7071067811865475700, 0.7071067811865475700, 0.0000000000000000000 ) ) ;
#170 = DIRECTION ( 'NONE',  ( -0.0000000000000000000, -0.0000000000000000000, -1.000000000000000000 ) ) ;
#171 = VERTEX_POINT ( 'NONE', #197 ) ;
#172 = AXIS2_PLACEMENT_3D ( 'NONE', #106, #212, #79 ) ;
#173 = CARTESIAN_POINT ( 'NONE',  ( 0.0000000000000000000, 50.00000000000000000, 0.0000000000000000000 ) ) ;
#174 = MANIFOLD_SOLID_BREP ( 'Boss-Extrude2', #139 ) ;
#175 = ORIENTED_EDGE ( 'NONE', *, *, #283, .F. ) ;
#176 = DIRECTION ( 'NONE',  ( -1.000000000000000000, -1.877481598344347900E-016, 0.0000000000000000000 ) ) ;
#177 = DIRECTION ( 'NONE',  ( 0.0000000000000000000, 0.0000000000000000000, 1.000000000000000000 ) ) ;
#178 = DATE_AND_TIME ( #309, #100 ) ;
#179 = PLANE ( 'NONE',  #146 ) ;
#180 = APPLICATION_CONTEXT ( 'configuration controlled 3d designs of mechanical parts and assemblies' ) ;
#181 = EDGE_CURVE ( 'NONE', #171, #215, #209, .T. ) ;
#182 = APPLICATION_PROTOCOL_DEFINITION ( 'international standard', 'config_control_design', 1994, #180 ) ;
#183 = ADVANCED_FACE ( 'NONE', ( #304 ), #144, .F. ) ;
#184 = PERSON_AND_ORGANIZATION ( #247, #213 ) ;
#185 = PLANE ( 'NONE',  #98 ) ;
#186 = CARTESIAN_POINT ( 'NONE',  ( 0.0000000000000000000, 0.0000000000000000000, 50.00000000000000000 ) ) ;
#187 = CARTESIAN_POINT ( 'NONE',  ( 0.0000000000000000000, 0.0000000000000000000, 50.00000000000000000 ) ) ;
#188 = AXIS2_PLACEMENT_3D ( 'NONE', #138, #83, #251 ) ;
#189 = EDGE_LOOP ( 'NONE', ( #141, #227, #96, #127 ) ) ;
#190 = APPROVAL_ROLE ( '' ) ;
#191 = EDGE_LOOP ( 'NONE', ( #262, #97, #156, #115 ) ) ;
#192 = EDGE_LOOP ( 'NONE', ( #119, #75, #114, #311 ) ) ;
#193 = CARTESIAN_POINT ( 'NONE',  ( 0.0000000000000000000, 0.0000000000000000000, 0.0000000000000000000 ) ) ;
#194 = FACE_OUTER_BOUND ( 'NONE', #14, .T. ) ;
#195 = APPROVAL_STATUS ( 'not_yet_approved' ) ;
#196 = EDGE_CURVE ( 'NONE', #305, #124, #203, .T. ) ;
#197 = CARTESIAN_POINT ( 'NONE',  ( 0.0000000000000000000, 50.00000000000000000, 0.0000000000000000000 ) ) ;
#198 = ORIENTED_EDGE ( 'NONE', *, *, #243, .T. ) ;
#199 = ORIENTED_EDGE ( 'NONE', *, *, #65, .F. ) ;
#200 = DIRECTION ( 'NONE',  ( -0.7071067811865474600, -0.7071067811865474600, -0.0000000000000000000 ) ) ;
#201 = DIRECTION ( 'NONE',  ( -1.877481598344347900E-016, 1.000000000000000000, 0.0000000000000000000 ) ) ;
#202 = EDGE_LOOP ( 'NONE', ( #249, #4, #36 ) ) ;
#203 = LINE ( 'NONE', #152, #164 ) ;
#204 = EDGE_LOOP ( 'NONE', ( #308, #35, #199, #198 ) ) ;
#205 = ADVANCED_FACE ( 'NONE', ( #131 ), #78, .F. ) ;
#206 = CARTESIAN_POINT ( 'NONE',  ( 50.00000000000000000, 50.00000000000000000, 50.00000000000000000 ) ) ;
#207 = VERTEX_POINT ( 'NONE', #206 ) ;
#208 =( NAMED_UNIT ( * ) SI_UNIT ( $, .STERADIAN. ) SOLID_ANGLE_UNIT ( ) );
#209 = LINE ( 'NONE', #129, #297 ) ;
#210 = DATE_AND_TIME ( #9, #237 ) ;
#211 = LOCAL_TIME ( 11, 40, 33.00000000000000000, #158 ) ;
#212 = DIRECTION ( 'NONE',  ( 0.0000000000000000000, 0.0000000000000000000, 1.000000000000000000 ) ) ;
#213 = ORGANIZATION ( 'UNSPECIFIED', 'UNSPECIFIED', '' ) ;
#214 = PLANE ( 'NONE',  #275 ) ;
#215 = VERTEX_POINT ( 'NONE', #55 ) ;
#216 = CARTESIAN_POINT ( 'NONE',  ( 0.0000000000000000000, 0.0000000000000000000, 50.00000000000000000 ) ) ;
#217 = DIRECTION ( 'NONE',  ( 1.000000000000000000, 1.877481598344347700E-016, -0.0000000000000000000 ) ) ;
#218 = CARTESIAN_POINT ( 'NONE',  ( 0.0000000000000000000, 50.00000000000000000, 50.00000000000000000 ) ) ;
#219 =( NAMED_UNIT ( * ) PLANE_ANGLE_UNIT ( ) SI_UNIT ( $, .RADIAN. ) );
#220 = PERSON_AND_ORGANIZATION ( #247, #213 ) ;
#221 = PERSON_AND_ORGANIZATION ( #247, #213 ) ;
#222 = CALENDAR_DATE ( 2014, 5, 6 ) ;
#223 = ORIENTED_EDGE ( 'NONE', *, *, #242, .T. ) ;
#224 = DIRECTION ( 'NONE',  ( -0.0000000000000000000, -1.000000000000000000, -0.0000000000000000000 ) ) ;
#225 = DIRECTION ( 'NONE',  ( -0.0000000000000000000, -0.0000000000000000000, -1.000000000000000000 ) ) ;
#226 = LINE ( 'NONE', #302, #49 ) ;
#227 = ORIENTED_EDGE ( 'NONE', *, *, #264, .F. ) ;
#228 = ORIENTED_EDGE ( 'NONE', *, *, #242, .F. ) ;
#229 = PLANE ( 'NONE',  #110 ) ;
#230 = PERSON_AND_ORGANIZATION ( #247, #213 ) ;
#231 = CARTESIAN_POINT ( 'NONE',  ( 50.00000000000001400, 9.387407991721742200E-015, 0.0000000000000000000 ) ) ;
#232 = DATE_AND_TIME ( #163, #26 ) ;
#233 = LINE ( 'NONE', #103, #240 ) ;
#234 = VERTEX_POINT ( 'NONE', #34 ) ;
#235 = APPROVAL_PERSON_ORGANIZATION ( #307, #27, #59 ) ;
#236 = DIRECTION ( 'NONE',  ( 0.0000000000000000000, -1.000000000000000000, 0.0000000000000000000 ) ) ;
#237 = LOCAL_TIME ( 11, 40, 33.00000000000000000, #296 ) ;
#238 = PRODUCT_DEFINITION_SHAPE ( 'NONE', 'NONE',  #54 ) ;
#239 = CARTESIAN_POINT ( 'NONE',  ( 0.0000000000000000000, 50.00000000000000000, 50.00000000000000000 ) ) ;
#240 = VECTOR ( 'NONE', #255, 1000.000000000000000 ) ;
#241 = VERTEX_POINT ( 'NONE', #72 ) ;
#242 = EDGE_CURVE ( 'NONE', #10, #171, #126, .T. ) ;
#243 = EDGE_CURVE ( 'NONE', #63, #171, #81, .T. ) ;
#244 = LINE ( 'NONE', #165, #149 ) ;
#245 = DIRECTION ( 'NONE',  ( 0.0000000000000000000, -0.0000000000000000000, -1.000000000000000000 ) ) ;
#246 = VECTOR ( 'NONE', #67, 1000.000000000000000 ) ;
#247 = PERSON ( 'UNSPECIFIED', 'UNSPECIFIED', 'UNSPECIFIED', ('UNSPECIFIED'), ('UNSPECIFIED'), ('UNSPECIFIED') ) ;
#248 = DATE_AND_TIME ( #273, #211 ) ;
#249 = ORIENTED_EDGE ( 'NONE', *, *, #112, .T. ) ;
#250 = AXIS2_PLACEMENT_3D ( 'NONE', #85, #62, #282 ) ;
#251 = DIRECTION ( 'NONE',  ( 2.775557561562891800E-016, -1.000000000000000000, 0.0000000000000000000 ) ) ;
#252 =( LENGTH_UNIT ( ) NAMED_UNIT ( * ) SI_UNIT ( .MILLI., .METRE. ) );
#253 = CARTESIAN_POINT ( 'NONE',  ( 50.00000000000001400, 9.387407991721742200E-015, 50.00000000000000000 ) ) ;
#254 = CARTESIAN_POINT ( 'NONE',  ( 0.0000000000000000000, 0.0000000000000000000, 50.00000000000000000 ) ) ;
#255 = DIRECTION ( 'NONE',  ( -1.000000000000000000, -0.0000000000000000000, -0.0000000000000000000 ) ) ;
#256 = FACE_OUTER_BOUND ( 'NONE', #192, .T. ) ;
#257 = CARTESIAN_POINT ( 'NONE',  ( 50.00000000000000000, 50.00000000000000000, 50.00000000000000000 ) ) ;
#258 = AXIS2_PLACEMENT_3D ( 'NONE', #186, #117, #71 ) ;
#259 = EDGE_CURVE ( 'NONE', #241, #63, #233, .T. ) ;
#260 = ADVANCED_FACE ( 'NONE', ( #61 ), #179, .F. ) ;
#261 = LINE ( 'NONE', #123, #312 ) ;
#262 = ORIENTED_EDGE ( 'NONE', *, *, #318, .T. ) ;
#263 = PERSON_AND_ORGANIZATION ( #247, #213 ) ;
#264 = EDGE_CURVE ( 'NONE', #241, #10, #284, .T. ) ;
#265 = LINE ( 'NONE', #288, #87 ) ;
#266 = EDGE_LOOP ( 'NONE', ( #317, #118, #272 ) ) ;
#267 = CARTESIAN_POINT ( 'NONE',  ( 0.0000000000000000000, 0.0000000000000000000, 0.0000000000000000000 ) ) ;
#268 = FACE_OUTER_BOUND ( 'NONE', #202, .T. ) ;
#269 = EDGE_CURVE ( 'NONE', #167, #105, #6, .T. ) ;
#270 = ORIENTED_EDGE ( 'NONE', *, *, #259, .F. ) ;
#271 = AXIS2_PLACEMENT_3D ( 'NONE', #239, #236, #245 ) ;
#272 = ORIENTED_EDGE ( 'NONE', *, *, #318, .F. ) ;
#273 = CALENDAR_DATE ( 2014, 5, 6 ) ;
#274 = ADVANCED_FACE ( 'NONE', ( #268 ), #229, .T. ) ;
#275 = AXIS2_PLACEMENT_3D ( 'NONE', #253, #201, #176 ) ;
#276 = VECTOR ( 'NONE', #279, 1000.000000000000000 ) ;
#277 = LOCAL_TIME ( 11, 40, 33.00000000000000000, #15 ) ;
#278 = CARTESIAN_POINT ( 'NONE',  ( 50.00000000000000000, 50.00000000000000000, 0.0000000000000000000 ) ) ;
#279 = DIRECTION ( 'NONE',  ( -0.0000000000000000000, -0.0000000000000000000, -1.000000000000000000 ) ) ;
#280 = PLANE ( 'NONE',  #271 ) ;
#281 = EDGE_CURVE ( 'NONE', #124, #105, #315, .T. ) ;
#282 = DIRECTION ( 'NONE',  ( -1.000000000000000000, 0.0000000000000000000, 0.0000000000000000000 ) ) ;
#283 = EDGE_CURVE ( 'NONE', #215, #10, #244, .T. ) ;
#284 = LINE ( 'NONE', #257, #44 ) ;
#285 = CARTESIAN_POINT ( 'NONE',  ( 50.00000000000000000, 50.00000000000000000, 50.00000000000000000 ) ) ;
#286 = PLANE ( 'NONE',  #250 ) ;
#287 = VECTOR ( 'NONE', #25, 1000.000000000000000 ) ;
#288 = CARTESIAN_POINT ( 'NONE',  ( 0.0000000000000000000, 0.0000000000000000000, 50.00000000000000000 ) ) ;
#289 = EDGE_CURVE ( 'NONE', #207, #305, #265, .T. ) ;
#290 = EDGE_CURVE ( 'NONE', #234, #124, #102, .T. ) ;
#291 = CARTESIAN_POINT ( 'NONE',  ( 50.00000000000001400, 9.387407991721742200E-015, 50.00000000000000000 ) ) ;
#292 = DIRECTION ( 'NONE',  ( -2.775557561562891800E-016, 1.000000000000000000, -0.0000000000000000000 ) ) ;
#293 = ADVANCED_FACE ( 'NONE', ( #43 ), #185, .F. ) ;
#294 = FACE_OUTER_BOUND ( 'NONE', #28, .T. ) ;
#295 = VECTOR ( 'NONE', #21, 1000.000000000000000 ) ;
#296 = COORDINATED_UNIVERSAL_TIME_OFFSET ( 7, 0, .BEHIND. ) ;
#297 = VECTOR ( 'NONE', #147, 1000.000000000000000 ) ;
#298 = PRODUCT ( 'step_65606', 'step_65606', '', ( #150 ) ) ;
#299 = APPROVAL_PERSON_ORGANIZATION ( #230, #52, #300 ) ;
#300 = APPROVAL_ROLE ( '' ) ;
#301 = CARTESIAN_POINT ( 'NONE',  ( 50.00000000000000000, 50.00000000000000000, 0.0000000000000000000 ) ) ;
#302 = CARTESIAN_POINT ( 'NONE',  ( 50.00000000000000000, 50.00000000000000000, 50.00000000000000000 ) ) ;
#303 = CLOSED_SHELL ( 'NONE', ( #260, #70, #314, #293, #157 ) ) ;
#304 = FACE_OUTER_BOUND ( 'NONE', #191, .T. ) ;
#305 = VERTEX_POINT ( 'NONE', #111 ) ;
#306 = MANIFOLD_SOLID_BREP ( 'Boss-Extrude1', #303 ) ;
#307 = PERSON_AND_ORGANIZATION ( #247, #213 ) ;
#308 = ORIENTED_EDGE ( 'NONE', *, *, #181, .T. ) ;
#309 = CALENDAR_DATE ( 2014, 5, 6 ) ;
#310 = PERSON_AND_ORGANIZATION_ROLE ( 'classification_officer' ) ;
#311 = ORIENTED_EDGE ( 'NONE', *, *, #319, .T. ) ;
#312 = VECTOR ( 'NONE', #217, 1000.000000000000000 ) ;
#313 = COORDINATED_UNIVERSAL_TIME_OFFSET ( 7, 0, .BEHIND. ) ;
#314 = ADVANCED_FACE ( 'NONE', ( #32 ), #93, .F. ) ;
#315 = LINE ( 'NONE', #143, #287 ) ;
#316 = CARTESIAN_POINT ( 'NONE',  ( 50.00000000000001400, 9.387407991721742200E-015, 50.00000000000000000 ) ) ;
#317 = ORIENTED_EDGE ( 'NONE', *, *, #281, .F. ) ;
#318 = EDGE_CURVE ( 'NONE', #105, #234, #47, .T. ) ;
#319 = EDGE_CURVE ( 'NONE', #207, #234, #69, .T. ) ;
#320 = DIRECTION ( 'NONE',  ( 0.0000000000000000000, 0.0000000000000000000, 1.000000000000000000 ) ) ;
#321 = CARTESIAN_POINT ( 'NONE',  ( 0.0000000000000000000, 0.0000000000000000000, 0.0000000000000000000 ) ) ;
ENDSEC;
END-ISO-10303-21;
