ISO-10303-21;
HEADER;
FILE_DESCRIPTION (( 'STEP AP214' ),
    '1' );
FILE_NAME ('4413-E0W.STEP',
    '2009-12-21T17:00:18',
    ( ' ' ),
    ( ' ' ),
    'SwSTEP 2.0',
    'SolidWorks 2009',
    '' );
FILE_SCHEMA (( 'AUTOMOTIVE_DESIGN' ));
ENDSEC;

DATA;
#1 = DIRECTION ( 'NONE',  ( -0.0000000000000000000, -0.0000000000000000000, 1.000000000000000000 ) ) ;
#2 = CIRCLE ( 'NONE', #5, 2.999999999999999100 ) ;
#3 = AXIS2_PLACEMENT_3D ( 'NONE', #6, #9, #8 ) ;
#4 = CARTESIAN_POINT ( 'NONE',  ( 0.0000000000000000000, 0.0000000000000000000, 0.4432552323110151000 ) ) ;
#5 = AXIS2_PLACEMENT_3D ( 'NONE', #4, #1, #10 ) ;
#6 = CARTESIAN_POINT ( 'NONE',  ( 0.0000000000000000000, 0.0000000000000000000, -6.669999999999999000 ) ) ;
#7 = SPHERICAL_SURFACE ( 'NONE', #3, 7.719999999999999800 ) ;
#8 = DIRECTION ( 'NONE',  ( 0.0000000000000000000, 1.000000000000000000, 0.0000000000000000000 ) ) ;
#9 = DIRECTION ( 'NONE',  ( -1.000000000000000000, 0.0000000000000000000, 0.0000000000000000000 ) ) ;
#10 = DIRECTION ( 'NONE',  ( 1.000000000000000000, 0.0000000000000000000, 0.0000000000000000000 ) ) ;
#11 = SURFACE_SIDE_STYLE ('',( #12 ) ) ;
#12 = SURFACE_STYLE_FILL_AREA ( #22 ) ;
#13 = STYLED_ITEM ( 'NONE', ( #14 ), #182 ) ;
#14 = PRESENTATION_STYLE_ASSIGNMENT (( #15 ) ) ;
#15 = SURFACE_STYLE_USAGE ( .BOTH. , #11 ) ;
#16 = MECHANICAL_DESIGN_GEOMETRIC_PRESENTATION_REPRESENTATION (  '', ( #13 ), #26 ) ;
#17 = PRESENTATION_LAYER_ASSIGNMENT (  '', '', ( #13 ) ) ;
#18 =( NAMED_UNIT ( * ) PLANE_ANGLE_UNIT ( ) SI_UNIT ( $, .RADIAN. ) );
#19 =( LENGTH_UNIT ( ) NAMED_UNIT ( * ) SI_UNIT ( .MILLI., .METRE. ) );
#20 =( NAMED_UNIT ( * ) SI_UNIT ( $, .STERADIAN. ) SOLID_ANGLE_UNIT ( ) );
#21 = UNCERTAINTY_MEASURE_WITH_UNIT (LENGTH_MEASURE( 1.000000000000000100E-005 ), #19, 'distance_accuracy_value', 'NONE');
#22 = FILL_AREA_STYLE ('',( #23 ) ) ;
#23 = FILL_AREA_STYLE_COLOUR ( '', #24 ) ;
#24 = COLOUR_RGB ( '',0.9568627450980391500, 0.9490196078431372100, 0.9607843137254902200 ) ;
#25 = FACE_OUTER_BOUND ( 'NONE', #183, .T. ) ;
#26 =( GEOMETRIC_REPRESENTATION_CONTEXT ( 3 ) GLOBAL_UNCERTAINTY_ASSIGNED_CONTEXT ( ( #21 ) ) GLOBAL_UNIT_ASSIGNED_CONTEXT ( ( #19, #18, #20 ) ) REPRESENTATION_CONTEXT ( 'NONE', 'WORKASPACE' ) );
#27 =( GEOMETRIC_REPRESENTATION_CONTEXT ( 3 ) GLOBAL_UNCERTAINTY_ASSIGNED_CONTEXT ( ( #32 ) ) GLOBAL_UNIT_ASSIGNED_CONTEXT ( ( #69, #68, #33 ) ) REPRESENTATION_CONTEXT ( 'NONE', 'WORKASPACE' ) );
#28 = AXIS2_PLACEMENT_3D ( 'NONE', #31, #79, #40 ) ;
#29 = UNCERTAINTY_MEASURE_WITH_UNIT (LENGTH_MEASURE( 1.000000000000000100E-005 ), #59, 'distance_accuracy_value', 'NONE');
#30 =( NAMED_UNIT ( * ) SI_UNIT ( $, .STERADIAN. ) SOLID_ANGLE_UNIT ( ) );
#31 = CARTESIAN_POINT ( 'NONE',  ( 0.0000000000000000000, 0.0000000000000000000, 4.308132045400366600 ) ) ;
#32 = UNCERTAINTY_MEASURE_WITH_UNIT (LENGTH_MEASURE( 1.000000000000000100E-005 ), #69, 'distance_accuracy_value', 'NONE');
#33 =( NAMED_UNIT ( * ) SI_UNIT ( $, .STERADIAN. ) SOLID_ANGLE_UNIT ( ) );
#34 = COLOUR_RGB ( '',0.9568627450980391500, 0.9490196078431372100, 0.9607843137254902200 ) ;
#35 = FACE_OUTER_BOUND ( 'NONE', #160, .T. ) ;
#36 = CARTESIAN_POINT ( 'NONE',  ( -2.999999999999999100, 3.673819061467130800E-016, -1.050000000000000500 ) ) ;
#37 = DIRECTION ( 'NONE',  ( 0.0000000000000000000, 1.000000000000000000, 0.0000000000000000000 ) ) ;
#38 = DIRECTION ( 'NONE',  ( -1.000000000000000000, 0.0000000000000000000, 0.0000000000000000000 ) ) ;
#39 = AXIS2_PLACEMENT_3D ( 'NONE', #49, #38, #37 ) ;
#40 = DIRECTION ( 'NONE',  ( 1.000000000000000000, 0.0000000000000000000, 0.0000000000000000000 ) ) ;
#41 = CARTESIAN_POINT ( 'NONE',  ( 0.0000000000000000000, 0.0000000000000000000, -1.050000000000000500 ) ) ;
#42 =( GEOMETRIC_REPRESENTATION_CONTEXT ( 3 ) GLOBAL_UNCERTAINTY_ASSIGNED_CONTEXT ( ( #29 ) ) GLOBAL_UNIT_ASSIGNED_CONTEXT ( ( #59, #66, #30 ) ) REPRESENTATION_CONTEXT ( 'NONE', 'WORKASPACE' ) );
#43 = DIRECTION ( 'NONE',  ( 1.000000000000000000, 0.0000000000000000000, 0.0000000000000000000 ) ) ;
#44 = DIRECTION ( 'NONE',  ( -0.0000000000000000000, -0.0000000000000000000, 1.000000000000000000 ) ) ;
#45 = CARTESIAN_POINT ( 'NONE',  ( -2.999999999999999100, 3.673819061467130800E-016, 0.4432552323110151000 ) ) ;
#46 = CIRCLE ( 'NONE', #62, 7.719999999999999800 ) ;
#47 = FACE_OUTER_BOUND ( 'NONE', #192, .T. ) ;
#48 = CARTESIAN_POINT ( 'NONE',  ( 2.999999999999999100, 0.0000000000000000000, -1.050000000000000500 ) ) ;
#49 = CARTESIAN_POINT ( 'NONE',  ( 0.0000000000000000000, 0.0000000000000000000, -6.669999999999999000 ) ) ;
#50 = SPHERICAL_SURFACE ( 'NONE', #39, 7.719999999999999800 ) ;
#51 = CYLINDRICAL_SURFACE ( 'NONE', #28, 2.999999999999999100 ) ;
#52 = STYLED_ITEM ( 'NONE', ( #53 ), #190 ) ;
#53 = PRESENTATION_STYLE_ASSIGNMENT (( #54 ) ) ;
#54 = SURFACE_STYLE_USAGE ( .BOTH. , #55 ) ;
#55 = SURFACE_SIDE_STYLE ('',( #56 ) ) ;
#56 = SURFACE_STYLE_FILL_AREA ( #57 ) ;
#57 = FILL_AREA_STYLE ('',( #58 ) ) ;
#58 = FILL_AREA_STYLE_COLOUR ( '', #63 ) ;
#59 =( LENGTH_UNIT ( ) NAMED_UNIT ( * ) SI_UNIT ( .MILLI., .METRE. ) );
#60 = MECHANICAL_DESIGN_GEOMETRIC_PRESENTATION_REPRESENTATION (  '', ( #52 ), #42 ) ;
#61 = PRESENTATION_LAYER_ASSIGNMENT (  '', '', ( #52 ) ) ;
#62 = AXIS2_PLACEMENT_3D ( 'NONE', #80, #65, #64 ) ;
#63 = COLOUR_RGB ( '',0.9568627450980391500, 0.9490196078431372100, 0.9607843137254902200 ) ;
#64 = DIRECTION ( 'NONE',  ( -1.224606353822377300E-016, -1.000000000000000000, 0.0000000000000000000 ) ) ;
#65 = DIRECTION ( 'NONE',  ( -1.000000000000000000, 1.224606353822377300E-016, 0.0000000000000000000 ) ) ;
#66 =( NAMED_UNIT ( * ) PLANE_ANGLE_UNIT ( ) SI_UNIT ( $, .RADIAN. ) );
#67 = CIRCLE ( 'NONE', #81, 2.999999999999999100 ) ;
#68 =( NAMED_UNIT ( * ) PLANE_ANGLE_UNIT ( ) SI_UNIT ( $, .RADIAN. ) );
#69 =( LENGTH_UNIT ( ) NAMED_UNIT ( * ) SI_UNIT ( .MILLI., .METRE. ) );
#70 = MECHANICAL_DESIGN_GEOMETRIC_PRESENTATION_REPRESENTATION (  '', ( #72 ), #27 ) ;
#71 = PRESENTATION_LAYER_ASSIGNMENT (  '', '', ( #72 ) ) ;
#72 = STYLED_ITEM ( 'NONE', ( #73 ), #196 ) ;
#73 = PRESENTATION_STYLE_ASSIGNMENT (( #74 ) ) ;
#74 = SURFACE_STYLE_USAGE ( .BOTH. , #75 ) ;
#75 = SURFACE_SIDE_STYLE ('',( #76 ) ) ;
#76 = SURFACE_STYLE_FILL_AREA ( #77 ) ;
#77 = FILL_AREA_STYLE ('',( #78 ) ) ;
#78 = FILL_AREA_STYLE_COLOUR ( '', #34 ) ;
#79 = DIRECTION ( 'NONE',  ( -0.0000000000000000000, -0.0000000000000000000, 1.000000000000000000 ) ) ;
#80 = CARTESIAN_POINT ( 'NONE',  ( 0.0000000000000000000, 0.0000000000000000000, -6.669999999999999000 ) ) ;
#81 = AXIS2_PLACEMENT_3D ( 'NONE', #41, #44, #43 ) ;
#82 = DIRECTION ( 'NONE',  ( 1.000000000000000000, 0.0000000000000000000, 0.0000000000000000000 ) ) ;
#83 = DIRECTION ( 'NONE',  ( 0.0000000000000000000, -0.0000000000000000000, 1.000000000000000000 ) ) ;
#84 = CARTESIAN_POINT ( 'NONE',  ( 0.0000000000000000000, 3.857637417314163200E-016, -1.050000000000000000 ) ) ;
#85 = AXIS2_PLACEMENT_3D ( 'NONE', #84, #83, #82 ) ;
#86 = AXIS2_PLACEMENT_3D ( 'NONE', #122, #121, #120 ) ;
#87 =( NAMED_UNIT ( * ) PLANE_ANGLE_UNIT ( ) SI_UNIT ( $, .RADIAN. ) );
#88 =( LENGTH_UNIT ( ) NAMED_UNIT ( * ) SI_UNIT ( .MILLI., .METRE. ) );
#89 = PLANE ( 'NONE',  #85 ) ;
#90 = UNCERTAINTY_MEASURE_WITH_UNIT (LENGTH_MEASURE( 1.000000000000000100E-005 ), #93, 'distance_accuracy_value', 'NONE');
#91 =( NAMED_UNIT ( * ) SI_UNIT ( $, .STERADIAN. ) SOLID_ANGLE_UNIT ( ) );
#92 =( NAMED_UNIT ( * ) PLANE_ANGLE_UNIT ( ) SI_UNIT ( $, .RADIAN. ) );
#93 =( LENGTH_UNIT ( ) NAMED_UNIT ( * ) SI_UNIT ( .MILLI., .METRE. ) );
#94 = MECHANICAL_DESIGN_GEOMETRIC_PRESENTATION_REPRESENTATION (  '', ( #96 ), #123 ) ;
#95 = PRESENTATION_LAYER_ASSIGNMENT (  '', '', ( #96 ) ) ;
#96 = STYLED_ITEM ( 'NONE', ( #97 ), #106 ) ;
#97 = PRESENTATION_STYLE_ASSIGNMENT (( #98 ) ) ;
#98 = SURFACE_STYLE_USAGE ( .BOTH. , #99 ) ;
#99 = SURFACE_SIDE_STYLE ('',( #100 ) ) ;
#100 = SURFACE_STYLE_FILL_AREA ( #101 ) ;
#101 = FILL_AREA_STYLE ('',( #102 ) ) ;
#102 = FILL_AREA_STYLE_COLOUR ( '', #103 ) ;
#103 = COLOUR_RGB ( '',0.7960784313725489700, 0.8235294117647058400, 0.9372549019607843100 ) ;
#104 = APPLICATION_CONTEXT ( 'automotive_design' ) ;
#105 = SHAPE_DEFINITION_REPRESENTATION ( #110, #106 ) ;
#106 = ADVANCED_BREP_SHAPE_REPRESENTATION ( '4413-E0W', ( #150, #86 ), #107 ) ;
#107 =( GEOMETRIC_REPRESENTATION_CONTEXT ( 3 ) GLOBAL_UNCERTAINTY_ASSIGNED_CONTEXT ( ( #108 ) ) GLOBAL_UNIT_ASSIGNED_CONTEXT ( ( #88, #87, #109 ) ) REPRESENTATION_CONTEXT ( 'NONE', 'WORKASPACE' ) );
#108 = UNCERTAINTY_MEASURE_WITH_UNIT (LENGTH_MEASURE( 1.000000000000000100E-005 ), #88, 'distance_accuracy_value', 'NONE');
#109 =( NAMED_UNIT ( * ) SI_UNIT ( $, .STERADIAN. ) SOLID_ANGLE_UNIT ( ) );
#110 = PRODUCT_DEFINITION_SHAPE ( 'NONE', 'NONE',  #113 ) ;
#111 = PRODUCT_RELATED_PRODUCT_CATEGORY ( 'part', '', ( #117 ) ) ;
#112 = PRODUCT_DEFINITION_FORMATION_WITH_SPECIFIED_SOURCE ( 'ANY', '', #117, .NOT_KNOWN. ) ;
#113 = PRODUCT_DEFINITION ( 'UNKNOWN', '', #112, #114 ) ;
#114 = PRODUCT_DEFINITION_CONTEXT ( 'detailed design', #116, 'design' ) ;
#115 = APPLICATION_PROTOCOL_DEFINITION ( 'draft international standard', 'automotive_design', 1998, #116 ) ;
#116 = APPLICATION_CONTEXT ( 'automotive_design' ) ;
#117 = PRODUCT ( '4413-E0W', '4413-E0W', '', ( #118 ) ) ;
#118 = PRODUCT_CONTEXT ( 'NONE', #104, 'mechanical' ) ;
#119 = APPLICATION_PROTOCOL_DEFINITION ( 'draft international standard', 'automotive_design', 1998, #104 ) ;
#120 = DIRECTION ( 'NONE',  ( 1.000000000000000000, 0.0000000000000000000, 0.0000000000000000000 ) ) ;
#121 = DIRECTION ( 'NONE',  ( 0.0000000000000000000, 0.0000000000000000000, 1.000000000000000000 ) ) ;
#122 = CARTESIAN_POINT ( 'NONE',  ( 0.0000000000000000000, 0.0000000000000000000, 0.0000000000000000000 ) ) ;
#123 =( GEOMETRIC_REPRESENTATION_CONTEXT ( 3 ) GLOBAL_UNCERTAINTY_ASSIGNED_CONTEXT ( ( #90 ) ) GLOBAL_UNIT_ASSIGNED_CONTEXT ( ( #93, #92, #91 ) ) REPRESENTATION_CONTEXT ( 'NONE', 'WORKASPACE' ) );
#124 = EDGE_LOOP ( 'NONE', ( #179, #180, #157, #158 ) ) ;
#125 = COLOUR_RGB ( '',0.9568627450980391500, 0.9490196078431372100, 0.9607843137254902200 ) ;
#126 = FILL_AREA_STYLE ('',( #128 ) ) ;
#127 = SURFACE_STYLE_FILL_AREA ( #126 ) ;
#128 = FILL_AREA_STYLE_COLOUR ( '', #125 ) ;
#129 = VERTEX_POINT ( 'NONE', #199 ) ;
#130 = SURFACE_SIDE_STYLE ('',( #127 ) ) ;
#131 = EDGE_CURVE ( 'NONE', #193, #194, #219, .T. ) ;
#132 = ORIENTED_EDGE ( 'NONE', *, *, #177, .F. ) ;
#133 = SURFACE_STYLE_USAGE ( .BOTH. , #130 ) ;
#134 = FACE_OUTER_BOUND ( 'NONE', #156, .T. ) ;
#135 =( LENGTH_UNIT ( ) NAMED_UNIT ( * ) SI_UNIT ( .MILLI., .METRE. ) );
#136 = MECHANICAL_DESIGN_GEOMETRIC_PRESENTATION_REPRESENTATION (  '', ( #139 ), #145 ) ;
#137 = PRESENTATION_STYLE_ASSIGNMENT (( #133 ) ) ;
#138 = PRESENTATION_LAYER_ASSIGNMENT (  '', '', ( #139 ) ) ;
#139 = STYLED_ITEM ( 'NONE', ( #137 ), #159 ) ;
#140 = DIRECTION ( 'NONE',  ( 1.000000000000000000, 0.0000000000000000000, 0.0000000000000000000 ) ) ;
#141 =( NAMED_UNIT ( * ) PLANE_ANGLE_UNIT ( ) SI_UNIT ( $, .RADIAN. ) );
#142 = UNCERTAINTY_MEASURE_WITH_UNIT (LENGTH_MEASURE( 1.000000000000000100E-005 ), #135, 'distance_accuracy_value', 'NONE');
#143 =( LENGTH_UNIT ( ) NAMED_UNIT ( * ) SI_UNIT ( .MILLI., .METRE. ) );
#144 = DIRECTION ( 'NONE',  ( -0.0000000000000000000, -0.0000000000000000000, 1.000000000000000000 ) ) ;
#145 =( GEOMETRIC_REPRESENTATION_CONTEXT ( 3 ) GLOBAL_UNCERTAINTY_ASSIGNED_CONTEXT ( ( #142 ) ) GLOBAL_UNIT_ASSIGNED_CONTEXT ( ( #135, #141, #152 ) ) REPRESENTATION_CONTEXT ( 'NONE', 'WORKASPACE' ) );
#146 = UNCERTAINTY_MEASURE_WITH_UNIT (LENGTH_MEASURE( 1.000000000000000100E-005 ), #143, 'distance_accuracy_value', 'NONE');
#147 =( NAMED_UNIT ( * ) PLANE_ANGLE_UNIT ( ) SI_UNIT ( $, .RADIAN. ) );
#148 =( NAMED_UNIT ( * ) SI_UNIT ( $, .STERADIAN. ) SOLID_ANGLE_UNIT ( ) );
#149 = CARTESIAN_POINT ( 'NONE',  ( 0.0000000000000000000, 0.0000000000000000000, 4.308132045400366600 ) ) ;
#150 = MANIFOLD_SOLID_BREP ( 'NONE', #198 ) ;
#151 = AXIS2_PLACEMENT_3D ( 'NONE', #149, #144, #140 ) ;
#152 =( NAMED_UNIT ( * ) SI_UNIT ( $, .STERADIAN. ) SOLID_ANGLE_UNIT ( ) );
#153 = MECHANICAL_DESIGN_GEOMETRIC_PRESENTATION_REPRESENTATION (  '', ( #241 ), #154 ) ;
#154 =( GEOMETRIC_REPRESENTATION_CONTEXT ( 3 ) GLOBAL_UNCERTAINTY_ASSIGNED_CONTEXT ( ( #146 ) ) GLOBAL_UNIT_ASSIGNED_CONTEXT ( ( #143, #147, #148 ) ) REPRESENTATION_CONTEXT ( 'NONE', 'WORKASPACE' ) );
#155 = ORIENTED_EDGE ( 'NONE', *, *, #181, .F. ) ;
#156 = EDGE_LOOP ( 'NONE', ( #186, #165, #195, #155, #191 ) ) ;
#157 = ORIENTED_EDGE ( 'NONE', *, *, #166, .T. ) ;
#158 = ORIENTED_EDGE ( 'NONE', *, *, #177, .T. ) ;
#159 = ADVANCED_FACE ( 'NONE', ( #134 ), #220, .T. ) ;
#160 = EDGE_LOOP ( 'NONE', ( #197, #162 ) ) ;
#161 = VERTEX_POINT ( 'NONE', #224 ) ;
#162 = ORIENTED_EDGE ( 'NONE', *, *, #187, .F. ) ;
#163 = EDGE_CURVE ( 'NONE', #185, #172, #223, .T. ) ;
#164 = ORIENTED_EDGE ( 'NONE', *, *, #188, .T. ) ;
#165 = ORIENTED_EDGE ( 'NONE', *, *, #187, .T. ) ;
#166 = EDGE_CURVE ( 'NONE', #175, #161, #229, .T. ) ;
#167 = EDGE_CURVE ( 'NONE', #194, #185, #251, .T. ) ;
#168 = ORIENTED_EDGE ( 'NONE', *, *, #170, .F. ) ;
#169 = ORIENTED_EDGE ( 'NONE', *, *, #131, .T. ) ;
#170 = EDGE_CURVE ( 'NONE', #193, #175, #259, .T. ) ;
#171 = ORIENTED_EDGE ( 'NONE', *, *, #163, .T. ) ;
#172 = VERTEX_POINT ( 'NONE', #260 ) ;
#173 = ORIENTED_EDGE ( 'NONE', *, *, #174, .F. ) ;
#174 = EDGE_CURVE ( 'NONE', #161, #185, #236, .T. ) ;
#175 = VERTEX_POINT ( 'NONE', #237 ) ;
#176 = ORIENTED_EDGE ( 'NONE', *, *, #166, .F. ) ;
#177 = EDGE_CURVE ( 'NONE', #161, #129, #254, .T. ) ;
#178 = ADVANCED_FACE ( 'NONE', ( #255 ), #7, .T. ) ;
#179 = ORIENTED_EDGE ( 'NONE', *, *, #188, .F. ) ;
#180 = ORIENTED_EDGE ( 'NONE', *, *, #181, .T. ) ;
#181 = EDGE_CURVE ( 'NONE', #172, #175, #2, .T. ) ;
#182 = ADVANCED_FACE ( 'NONE', ( #25 ), #51, .T. ) ;
#183 = EDGE_LOOP ( 'NONE', ( #169, #184, #173, #176, #168 ) ) ;
#184 = ORIENTED_EDGE ( 'NONE', *, *, #167, .T. ) ;
#185 = VERTEX_POINT ( 'NONE', #45 ) ;
#186 = ORIENTED_EDGE ( 'NONE', *, *, #167, .F. ) ;
#187 = EDGE_CURVE ( 'NONE', #194, #193, #67, .T. ) ;
#188 = EDGE_CURVE ( 'NONE', #172, #129, #46, .T. ) ;
#189 = ORIENTED_EDGE ( 'NONE', *, *, #174, .T. ) ;
#190 = ADVANCED_FACE ( 'NONE', ( #47 ), #50, .T. ) ;
#191 = ORIENTED_EDGE ( 'NONE', *, *, #163, .F. ) ;
#192 = EDGE_LOOP ( 'NONE', ( #189, #171, #164, #132 ) ) ;
#193 = VERTEX_POINT ( 'NONE', #48 ) ;
#194 = VERTEX_POINT ( 'NONE', #36 ) ;
#195 = ORIENTED_EDGE ( 'NONE', *, *, #170, .T. ) ;
#196 = ADVANCED_FACE ( 'NONE', ( #35 ), #89, .F. ) ;
#197 = ORIENTED_EDGE ( 'NONE', *, *, #131, .F. ) ;
#198 = CLOSED_SHELL ( 'NONE', ( #182, #190, #178, #159, #196 ) ) ;
#199 = CARTESIAN_POINT ( 'NONE',  ( 0.0000000000000000000, 4.726980525754376100E-016, 1.050000000000000500 ) ) ;
#200 =( GEOMETRIC_REPRESENTATION_CONTEXT ( 3 ) GLOBAL_UNCERTAINTY_ASSIGNED_CONTEXT ( ( #201 ) ) GLOBAL_UNIT_ASSIGNED_CONTEXT ( ( #209, #208, #202 ) ) REPRESENTATION_CONTEXT ( 'NONE', 'WORKASPACE' ) );
#201 = UNCERTAINTY_MEASURE_WITH_UNIT (LENGTH_MEASURE( 1.000000000000000100E-005 ), #209, 'distance_accuracy_value', 'NONE');
#202 =( NAMED_UNIT ( * ) SI_UNIT ( $, .STERADIAN. ) SOLID_ANGLE_UNIT ( ) );
#203 = PRESENTATION_STYLE_ASSIGNMENT (( #204 ) ) ;
#204 = SURFACE_STYLE_USAGE ( .BOTH. , #205 ) ;
#205 = SURFACE_SIDE_STYLE ('',( #206 ) ) ;
#206 = SURFACE_STYLE_FILL_AREA ( #207 ) ;
#207 = FILL_AREA_STYLE ('',( #215 ) ) ;
#208 =( NAMED_UNIT ( * ) PLANE_ANGLE_UNIT ( ) SI_UNIT ( $, .RADIAN. ) );
#209 =( LENGTH_UNIT ( ) NAMED_UNIT ( * ) SI_UNIT ( .MILLI., .METRE. ) );
#210 = MECHANICAL_DESIGN_GEOMETRIC_PRESENTATION_REPRESENTATION (  '', ( #212 ), #200 ) ;
#211 = PRESENTATION_LAYER_ASSIGNMENT (  '', '', ( #212 ) ) ;
#212 = STYLED_ITEM ( 'NONE', ( #203 ), #150 ) ;
#213 = AXIS2_PLACEMENT_3D ( 'NONE', #218, #217, #216 ) ;
#214 = COLOUR_RGB ( '',0.7960784313725489700, 0.8235294117647058400, 0.9372549019607843100 ) ;
#215 = FILL_AREA_STYLE_COLOUR ( '', #214 ) ;
#216 = DIRECTION ( 'NONE',  ( 1.000000000000000000, 0.0000000000000000000, 0.0000000000000000000 ) ) ;
#217 = DIRECTION ( 'NONE',  ( -0.0000000000000000000, -0.0000000000000000000, 1.000000000000000000 ) ) ;
#218 = CARTESIAN_POINT ( 'NONE',  ( 0.0000000000000000000, 0.0000000000000000000, -1.050000000000000500 ) ) ;
#219 = CIRCLE ( 'NONE', #213, 2.999999999999999100 ) ;
#220 = CYLINDRICAL_SURFACE ( 'NONE', #151, 2.999999999999999100 ) ;
#221 = DIRECTION ( 'NONE',  ( 1.000000000000000000, 0.0000000000000000000, 0.0000000000000000000 ) ) ;
#222 = DIRECTION ( 'NONE',  ( -0.0000000000000000000, -0.0000000000000000000, 1.000000000000000000 ) ) ;
#223 = CIRCLE ( 'NONE', #231, 2.999999999999999100 ) ;
#224 = CARTESIAN_POINT ( 'NONE',  ( 0.0000000000000000000, 2.999999999999997300, 0.4432552323110151000 ) ) ;
#225 = DIRECTION ( 'NONE',  ( 1.000000000000000000, 0.0000000000000000000, 0.0000000000000000000 ) ) ;
#226 = DIRECTION ( 'NONE',  ( -0.0000000000000000000, -0.0000000000000000000, 1.000000000000000000 ) ) ;
#227 = CARTESIAN_POINT ( 'NONE',  ( 0.0000000000000000000, 0.0000000000000000000, 0.4432552323110151000 ) ) ;
#228 = AXIS2_PLACEMENT_3D ( 'NONE', #227, #226, #225 ) ;
#229 = CIRCLE ( 'NONE', #228, 2.999999999999999100 ) ;
#230 = CARTESIAN_POINT ( 'NONE',  ( 0.0000000000000000000, 0.0000000000000000000, 0.4432552323110151000 ) ) ;
#231 = AXIS2_PLACEMENT_3D ( 'NONE', #230, #222, #221 ) ;
#232 = DIRECTION ( 'NONE',  ( -0.0000000000000000000, -0.0000000000000000000, 1.000000000000000000 ) ) ;
#233 = VECTOR ( 'NONE', #232, 1000.000000000000000 ) ;
#234 = CARTESIAN_POINT ( 'NONE',  ( 0.0000000000000000000, 0.0000000000000000000, 0.4432552323110151000 ) ) ;
#235 = AXIS2_PLACEMENT_3D ( 'NONE', #234, #257, #256 ) ;
#236 = CIRCLE ( 'NONE', #235, 2.999999999999999100 ) ;
#237 = CARTESIAN_POINT ( 'NONE',  ( 2.999999999999999100, 0.0000000000000000000, 0.4432552323110151000 ) ) ;
#238 = CARTESIAN_POINT ( 'NONE',  ( -2.999999999999999100, 3.673819061467130800E-016, 4.308132045400366600 ) ) ;
#239 = VECTOR ( 'NONE', #261, 1000.000000000000000 ) ;
#240 = PRESENTATION_LAYER_ASSIGNMENT (  '', '', ( #241 ) ) ;
#241 = STYLED_ITEM ( 'NONE', ( #242 ), #178 ) ;
#242 = PRESENTATION_STYLE_ASSIGNMENT (( #243 ) ) ;
#243 = SURFACE_STYLE_USAGE ( .BOTH. , #244 ) ;
#244 = SURFACE_SIDE_STYLE ('',( #245 ) ) ;
#245 = SURFACE_STYLE_FILL_AREA ( #246 ) ;
#246 = FILL_AREA_STYLE ('',( #247 ) ) ;
#247 = FILL_AREA_STYLE_COLOUR ( '', #248 ) ;
#248 = COLOUR_RGB ( '',0.9568627450980391500, 0.9490196078431372100, 0.9607843137254902200 ) ;
#249 = DIRECTION ( 'NONE',  ( 0.0000000000000000000, 0.0000000000000000000, -1.000000000000000000 ) ) ;
#250 = DIRECTION ( 'NONE',  ( 1.000000000000000000, 0.0000000000000000000, 0.0000000000000000000 ) ) ;
#251 = LINE ( 'NONE', #238, #239 ) ;
#252 = CARTESIAN_POINT ( 'NONE',  ( 0.0000000000000000000, 0.0000000000000000000, -6.669999999999999000 ) ) ;
#253 = AXIS2_PLACEMENT_3D ( 'NONE', #252, #250, #249 ) ;
#254 = CIRCLE ( 'NONE', #253, 7.719999999999999800 ) ;
#255 = FACE_OUTER_BOUND ( 'NONE', #124, .T. ) ;
#256 = DIRECTION ( 'NONE',  ( 1.000000000000000000, 0.0000000000000000000, 0.0000000000000000000 ) ) ;
#257 = DIRECTION ( 'NONE',  ( -0.0000000000000000000, -0.0000000000000000000, 1.000000000000000000 ) ) ;
#258 = CARTESIAN_POINT ( 'NONE',  ( 2.999999999999999100, 0.0000000000000000000, 4.308132045400366600 ) ) ;
#259 = LINE ( 'NONE', #258, #233 ) ;
#260 = CARTESIAN_POINT ( 'NONE',  ( -3.673819061467128800E-016, -2.999999999999997300, 0.4432552323110151000 ) ) ;
#261 = DIRECTION ( 'NONE',  ( -0.0000000000000000000, -0.0000000000000000000, 1.000000000000000000 ) ) ;
ENDSEC;
END-ISO-10303-21;
