ISO-10303-21;
HEADER;
FILE_DESCRIPTION (( 'STEP AP203' ),
    '1' );
FILE_NAME ('Web Model 34467_34473.step',
    '2017-06-14T17:57:06',
    ( '' ),
    ( '' ),
    'SwSTEP 2.0',
    'SolidWorks 2016',
    '' );
FILE_SCHEMA (( 'CONFIG_CONTROL_DESIGN' ));
ENDSEC;

DATA;
#1 = APPROVAL_STATUS ( 'not_yet_approved' ) ;
#2 = DATE_TIME_ROLE ( 'creation_date' ) ;
#3 = CARTESIAN_POINT ( 'NONE',  ( 12.50000000000000000, 1.530808498934191500E-015, 0.6250000000000000000 ) ) ;
#4 = CARTESIAN_POINT ( 'NONE',  ( 0.0000000000000000000, 0.0000000000000000000, -0.6250000000000000000 ) ) ;
#5 = COORDINATED_UNIVERSAL_TIME_OFFSET ( 5, 0, .BEHIND. ) ;
#6 = CARTESIAN_POINT ( 'NONE',  ( 0.0000000000000000000, 0.0000000000000000000, -0.6250000000000000000 ) ) ;
#7 = COORDINATED_UNIVERSAL_TIME_OFFSET ( 5, 0, .BEHIND. ) ;
#8 = ADVANCED_FACE ( 'NONE', ( #54 ), #21, .F. ) ;
#9 = AXIS2_PLACEMENT_3D ( 'NONE', #27, #129, #119 ) ;
#10 = LOCAL_TIME ( 13, 57, 6.000000000000000000, #7 ) ;
#11 = DATE_AND_TIME ( #161, #149 ) ;
#12 = CARTESIAN_POINT ( 'NONE',  ( 0.0000000000000000000, 0.0000000000000000000, -0.6250000000000000000 ) ) ;
#13 = DIRECTION ( 'NONE',  ( 1.000000000000000000, 0.0000000000000000000, -0.0000000000000000000 ) ) ;
#14 = PERSON_AND_ORGANIZATION ( #114, #61 ) ;
#15 = CALENDAR_DATE ( 2017, 14, 6 ) ;
#16 =( LENGTH_UNIT ( ) NAMED_UNIT ( * ) SI_UNIT ( .MILLI., .METRE. ) );
#17 = CC_DESIGN_APPROVAL ( #169, ( #121 ) ) ;
#18 = CALENDAR_DATE ( 2017, 14, 6 ) ;
#19 = DESIGN_CONTEXT ( 'detailed design', #48, 'design' ) ;
#20 = VERTEX_POINT ( 'NONE', #37 ) ;
#21 = PLANE ( 'NONE',  #151 ) ;
#22 = AXIS2_PLACEMENT_3D ( 'NONE', #152, #43, #66 ) ;
#23 = COORDINATED_UNIVERSAL_TIME_OFFSET ( 5, 0, .BEHIND. ) ;
#24 = PRODUCT_DEFINITION_SHAPE ( 'NONE', 'NONE',  #55 ) ;
#25 = APPROVAL_PERSON_ORGANIZATION ( #171, #45, #67 ) ;
#26 = SECURITY_CLASSIFICATION_LEVEL ( 'unclassified' ) ;
#27 = CARTESIAN_POINT ( 'NONE',  ( 0.0000000000000000000, 0.0000000000000000000, 0.6250000000000000000 ) ) ;
#28 = CARTESIAN_POINT ( 'NONE',  ( 12.50000000000000000, 1.530808498934191500E-015, -0.6250000000000000000 ) ) ;
#29 = EDGE_LOOP ( 'NONE', ( #58, #59 ) ) ;
#30 = ADVANCED_FACE ( 'NONE', ( #102 ), #147, .T. ) ;
#31 = PERSON_AND_ORGANIZATION_ROLE ( 'creator' ) ;
#32 = VERTEX_POINT ( 'NONE', #138 ) ;
#33 = PERSON_AND_ORGANIZATION ( #114, #61 ) ;
#34 = CIRCLE ( 'NONE', #69, 12.50000000000000000 ) ;
#35 = EDGE_LOOP ( 'NONE', ( #96, #125, #78, #126 ) ) ;
#36 = AXIS2_PLACEMENT_3D ( 'NONE', #4, #159, #101 ) ;
#37 = CARTESIAN_POINT ( 'NONE',  ( -12.50000000000000000, 0.0000000000000000000, -0.6250000000000000000 ) ) ;
#38 = APPROVAL_STATUS ( 'not_yet_approved' ) ;
#39 = PERSON_AND_ORGANIZATION ( #114, #61 ) ;
#40 = APPROVAL_DATE_TIME ( #97, #169 ) ;
#41 = EDGE_CURVE ( 'NONE', #106, #20, #81, .T. ) ;
#42 = DATE_AND_TIME ( #18, #10 ) ;
#43 = DIRECTION ( 'NONE',  ( 0.0000000000000000000, 0.0000000000000000000, 1.000000000000000000 ) ) ;
#44 = DIRECTION ( 'NONE',  ( 1.000000000000000000, 0.0000000000000000000, -0.0000000000000000000 ) ) ;
#45 = APPROVAL ( #163, 'UNSPECIFIED' ) ;
#46 = DIRECTION ( 'NONE',  ( 0.0000000000000000000, 0.0000000000000000000, 1.000000000000000000 ) ) ;
#47 =( NAMED_UNIT ( * ) PLANE_ANGLE_UNIT ( ) SI_UNIT ( $, .RADIAN. ) );
#48 = APPLICATION_CONTEXT ( 'configuration controlled 3d designs of mechanical parts and assemblies' ) ;
#49 = APPROVAL_DATE_TIME ( #122, #45 ) ;
#50 = PRODUCT_RELATED_PRODUCT_CATEGORY ( 'detail', '', ( #62 ) ) ;
#51 = LOCAL_TIME ( 13, 57, 6.000000000000000000, #77 ) ;
#52 = DATE_TIME_ROLE ( 'classification_date' ) ;
#53 = CIRCLE ( 'NONE', #36, 12.50000000000000000 ) ;
#54 = FACE_OUTER_BOUND ( 'NONE', #153, .T. ) ;
#55 = PRODUCT_DEFINITION ( 'UNKNOWN', '', #121, #19 ) ;
#56 = CALENDAR_DATE ( 2017, 14, 6 ) ;
#57 = CARTESIAN_POINT ( 'NONE',  ( 0.0000000000000000000, 0.0000000000000000000, 0.6250000000000000000 ) ) ;
#58 = ORIENTED_EDGE ( 'NONE', *, *, #164, .T. ) ;
#59 = ORIENTED_EDGE ( 'NONE', *, *, #76, .T. ) ;
#60 = DIRECTION ( 'NONE',  ( 0.0000000000000000000, 0.0000000000000000000, 1.000000000000000000 ) ) ;
#61 = ORGANIZATION ( 'UNSPECIFIED', 'UNSPECIFIED', '' ) ;
#62 = PRODUCT ( 'Web Model 34467_34473', 'Web Model 34467_34473', '', ( #91 ) ) ;
#63 = CC_DESIGN_PERSON_AND_ORGANIZATION_ASSIGNMENT ( #172, #115, ( #62 ) ) ;
#64 = ORIENTED_EDGE ( 'NONE', *, *, #124, .T. ) ;
#65 = LOCAL_TIME ( 13, 57, 6.000000000000000000, #162 ) ;
#66 = DIRECTION ( 'NONE',  ( 1.000000000000000000, 0.0000000000000000000, 0.0000000000000000000 ) ) ;
#67 = APPROVAL_ROLE ( '' ) ;
#68 = APPROVAL ( #1, 'UNSPECIFIED' ) ;
#69 = AXIS2_PLACEMENT_3D ( 'NONE', #57, #86, #109 ) ;
#70 = CC_DESIGN_PERSON_AND_ORGANIZATION_ASSIGNMENT ( #74, #165, ( #121 ) ) ;
#71 = CARTESIAN_POINT ( 'NONE',  ( 0.0000000000000000000, 0.0000000000000000000, 0.6250000000000000000 ) ) ;
#72 = CARTESIAN_POINT ( 'NONE',  ( 12.50000000000000000, 1.530808498934191500E-015, 0.6250000000000000000 ) ) ;
#73 = APPROVAL_ROLE ( '' ) ;
#74 = PERSON_AND_ORGANIZATION ( #114, #61 ) ;
#75 = CYLINDRICAL_SURFACE ( 'NONE', #166, 12.50000000000000000 ) ;
#76 = EDGE_CURVE ( 'NONE', #158, #32, #104, .T. ) ;
#77 = COORDINATED_UNIVERSAL_TIME_OFFSET ( 5, 0, .BEHIND. ) ;
#78 = ORIENTED_EDGE ( 'NONE', *, *, #148, .T. ) ;
#79 = AXIS2_PLACEMENT_3D ( 'NONE', #105, #46, #44 ) ;
#80 = VECTOR ( 'NONE', #170, 1000.000000000000000 ) ;
#81 = CIRCLE ( 'NONE', #116, 12.50000000000000000 ) ;
#82 = EDGE_LOOP ( 'NONE', ( #174, #64, #84, #131 ) ) ;
#83 = LOCAL_TIME ( 13, 57, 6.000000000000000000, #5 ) ;
#84 = ORIENTED_EDGE ( 'NONE', *, *, #41, .T. ) ;
#85 = EDGE_CURVE ( 'NONE', #20, #106, #53, .T. ) ;
#86 = DIRECTION ( 'NONE',  ( 0.0000000000000000000, 0.0000000000000000000, 1.000000000000000000 ) ) ;
#87 = DATE_AND_TIME ( #56, #65 ) ;
#88 = ADVANCED_FACE ( 'NONE', ( #120 ), #139, .T. ) ;
#89 = CLOSED_SHELL ( 'NONE', ( #111, #30, #88, #8 ) ) ;
#90 = APPROVAL_PERSON_ORGANIZATION ( #99, #68, #112 ) ;
#91 = MECHANICAL_CONTEXT ( 'NONE', #100, 'mechanical' ) ;
#92 = APPLICATION_PROTOCOL_DEFINITION ( 'international standard', 'config_control_design', 1994, #100 ) ;
#93 =( GEOMETRIC_REPRESENTATION_CONTEXT ( 3 ) GLOBAL_UNCERTAINTY_ASSIGNED_CONTEXT ( ( #134 ) ) GLOBAL_UNIT_ASSIGNED_CONTEXT ( ( #16, #47, #95 ) ) REPRESENTATION_CONTEXT ( 'NONE', 'WORKASPACE' ) );
#94 = CALENDAR_DATE ( 2017, 14, 6 ) ;
#95 =( NAMED_UNIT ( * ) SI_UNIT ( $, .STERADIAN. ) SOLID_ANGLE_UNIT ( ) );
#96 = ORIENTED_EDGE ( 'NONE', *, *, #124, .F. ) ;
#97 = DATE_AND_TIME ( #94, #83 ) ;
#98 = ORIENTED_EDGE ( 'NONE', *, *, #85, .F. ) ;
#99 = PERSON_AND_ORGANIZATION ( #114, #61 ) ;
#100 = APPLICATION_CONTEXT ( 'configuration controlled 3d designs of mechanical parts and assemblies' ) ;
#101 = DIRECTION ( 'NONE',  ( 1.000000000000000000, 0.0000000000000000000, 0.0000000000000000000 ) ) ;
#102 = FACE_OUTER_BOUND ( 'NONE', #35, .T. ) ;
#103 = CC_DESIGN_PERSON_AND_ORGANIZATION_ASSIGNMENT ( #33, #123, ( #127 ) ) ;
#104 = CIRCLE ( 'NONE', #22, 12.50000000000000000 ) ;
#105 = CARTESIAN_POINT ( 'NONE',  ( 0.0000000000000000000, 0.0000000000000000000, 0.6250000000000000000 ) ) ;
#106 = VERTEX_POINT ( 'NONE', #28 ) ;
#107 = APPLICATION_PROTOCOL_DEFINITION ( 'international standard', 'config_control_design', 1994, #48 ) ;
#108 = CC_DESIGN_SECURITY_CLASSIFICATION ( #127, ( #121 ) ) ;
#109 = DIRECTION ( 'NONE',  ( 1.000000000000000000, 0.0000000000000000000, 0.0000000000000000000 ) ) ;
#110 = CARTESIAN_POINT ( 'NONE',  ( 0.0000000000000000000, 0.0000000000000000000, 0.0000000000000000000 ) ) ;
#111 = ADVANCED_FACE ( 'NONE', ( #136 ), #75, .T. ) ;
#112 = APPROVAL_ROLE ( '' ) ;
#113 = APPROVAL_DATE_TIME ( #11, #68 ) ;
#114 = PERSON ( 'UNSPECIFIED', 'UNSPECIFIED', 'UNSPECIFIED', ('UNSPECIFIED'), ('UNSPECIFIED'), ('UNSPECIFIED') ) ;
#115 = PERSON_AND_ORGANIZATION_ROLE ( 'design_owner' ) ;
#116 = AXIS2_PLACEMENT_3D ( 'NONE', #6, #168, #130 ) ;
#117 = CC_DESIGN_PERSON_AND_ORGANIZATION_ASSIGNMENT ( #14, #31, ( #121 ) ) ;
#118 = VECTOR ( 'NONE', #146, 1000.000000000000000 ) ;
#119 = DIRECTION ( 'NONE',  ( -1.000000000000000000, 0.0000000000000000000, 0.0000000000000000000 ) ) ;
#120 = FACE_OUTER_BOUND ( 'NONE', #29, .T. ) ;
#121 = PRODUCT_DEFINITION_FORMATION_WITH_SPECIFIED_SOURCE ( 'ANY', '', #62, .NOT_KNOWN. ) ;
#122 = DATE_AND_TIME ( #15, #51 ) ;
#123 = PERSON_AND_ORGANIZATION_ROLE ( 'classification_officer' ) ;
#124 = EDGE_CURVE ( 'NONE', #158, #106, #132, .T. ) ;
#125 = ORIENTED_EDGE ( 'NONE', *, *, #164, .F. ) ;
#126 = ORIENTED_EDGE ( 'NONE', *, *, #85, .T. ) ;
#127 = SECURITY_CLASSIFICATION ( '', '', #26 ) ;
#128 = DIRECTION ( 'NONE',  ( 0.0000000000000000000, 0.0000000000000000000, 1.000000000000000000 ) ) ;
#129 = DIRECTION ( 'NONE',  ( -0.0000000000000000000, -0.0000000000000000000, -1.000000000000000000 ) ) ;
#130 = DIRECTION ( 'NONE',  ( 1.000000000000000000, 0.0000000000000000000, 0.0000000000000000000 ) ) ;
#131 = ORIENTED_EDGE ( 'NONE', *, *, #148, .F. ) ;
#132 = LINE ( 'NONE', #3, #80 ) ;
#133 = LINE ( 'NONE', #173, #118 ) ;
#134 = UNCERTAINTY_MEASURE_WITH_UNIT (LENGTH_MEASURE( 1.000000000000000100E-005 ), #16, 'distance_accuracy_value', 'NONE');
#135 = ORIENTED_EDGE ( 'NONE', *, *, #41, .F. ) ;
#136 = FACE_OUTER_BOUND ( 'NONE', #82, .T. ) ;
#137 = CC_DESIGN_PERSON_AND_ORGANIZATION_ASSIGNMENT ( #141, #157, ( #55 ) ) ;
#138 = CARTESIAN_POINT ( 'NONE',  ( -12.50000000000000000, 0.0000000000000000000, 0.6250000000000000000 ) ) ;
#139 = PLANE ( 'NONE',  #79 ) ;
#140 = DIRECTION ( 'NONE',  ( 1.000000000000000000, 0.0000000000000000000, 0.0000000000000000000 ) ) ;
#141 = PERSON_AND_ORGANIZATION ( #114, #61 ) ;
#142 = APPROVAL_PERSON_ORGANIZATION ( #39, #169, #73 ) ;
#143 = DIRECTION ( 'NONE',  ( -1.000000000000000000, 0.0000000000000000000, 0.0000000000000000000 ) ) ;
#144 = DIRECTION ( 'NONE',  ( -0.0000000000000000000, -0.0000000000000000000, -1.000000000000000000 ) ) ;
#145 = CC_DESIGN_DATE_AND_TIME_ASSIGNMENT ( #87, #2, ( #55 ) ) ;
#146 = DIRECTION ( 'NONE',  ( -0.0000000000000000000, -0.0000000000000000000, -1.000000000000000000 ) ) ;
#147 = CYLINDRICAL_SURFACE ( 'NONE', #9, 12.50000000000000000 ) ;
#148 = EDGE_CURVE ( 'NONE', #32, #20, #133, .T. ) ;
#149 = LOCAL_TIME ( 13, 57, 6.000000000000000000, #23 ) ;
#150 = MANIFOLD_SOLID_BREP ( 'Boss-Extrude1', #89 ) ;
#151 = AXIS2_PLACEMENT_3D ( 'NONE', #12, #128, #13 ) ;
#152 = CARTESIAN_POINT ( 'NONE',  ( 0.0000000000000000000, 0.0000000000000000000, 0.6250000000000000000 ) ) ;
#153 = EDGE_LOOP ( 'NONE', ( #98, #135 ) ) ;
#154 = CC_DESIGN_APPROVAL ( #68, ( #55 ) ) ;
#155 = CC_DESIGN_APPROVAL ( #45, ( #127 ) ) ;
#156 = ADVANCED_BREP_SHAPE_REPRESENTATION ( 'Web Model 34467_34473', ( #150, #175 ), #93 ) ;
#157 = PERSON_AND_ORGANIZATION_ROLE ( 'creator' ) ;
#158 = VERTEX_POINT ( 'NONE', #72 ) ;
#159 = DIRECTION ( 'NONE',  ( 0.0000000000000000000, 0.0000000000000000000, 1.000000000000000000 ) ) ;
#160 = CC_DESIGN_DATE_AND_TIME_ASSIGNMENT ( #42, #52, ( #127 ) ) ;
#161 = CALENDAR_DATE ( 2017, 14, 6 ) ;
#162 = COORDINATED_UNIVERSAL_TIME_OFFSET ( 5, 0, .BEHIND. ) ;
#163 = APPROVAL_STATUS ( 'not_yet_approved' ) ;
#164 = EDGE_CURVE ( 'NONE', #32, #158, #34, .T. ) ;
#165 = PERSON_AND_ORGANIZATION_ROLE ( 'design_supplier' ) ;
#166 = AXIS2_PLACEMENT_3D ( 'NONE', #71, #144, #143 ) ;
#167 = SHAPE_DEFINITION_REPRESENTATION ( #24, #156 ) ;
#168 = DIRECTION ( 'NONE',  ( 0.0000000000000000000, 0.0000000000000000000, 1.000000000000000000 ) ) ;
#169 = APPROVAL ( #38, 'UNSPECIFIED' ) ;
#170 = DIRECTION ( 'NONE',  ( -0.0000000000000000000, -0.0000000000000000000, -1.000000000000000000 ) ) ;
#171 = PERSON_AND_ORGANIZATION ( #114, #61 ) ;
#172 = PERSON_AND_ORGANIZATION ( #114, #61 ) ;
#173 = CARTESIAN_POINT ( 'NONE',  ( -12.50000000000000000, 0.0000000000000000000, 0.6250000000000000000 ) ) ;
#174 = ORIENTED_EDGE ( 'NONE', *, *, #76, .F. ) ;
#175 = AXIS2_PLACEMENT_3D ( 'NONE', #110, #60, #140 ) ;
ENDSEC;
END-ISO-10303-21;
