ISO-10303-21;
HEADER;
FILE_DESCRIPTION (( 'STEP AP203' ),
    '1' );
FILE_NAME ('Web Model 45462_45462.step',
    '2019-01-28T19:11:08',
    ( '' ),
    ( '' ),
    'SwSTEP 2.0',
    'SolidWorks 2016',
    '' );
FILE_SCHEMA (( 'CONFIG_CONTROL_DESIGN' ));
ENDSEC;

DATA;
#1 = LOCAL_TIME ( 14, 11, 8.000000000000000000, #42 ) ;
#2 = EDGE_LOOP ( 'NONE', ( #43, #104 ) ) ;
#3 = CC_DESIGN_PERSON_AND_ORGANIZATION_ASSIGNMENT ( #56, #102, ( #120 ) ) ;
#4 = APPLICATION_CONTEXT ( 'configuration controlled 3d designs of mechanical parts and assemblies' ) ;
#5 = UNCERTAINTY_MEASURE_WITH_UNIT (LENGTH_MEASURE( 1.000000000000000100E-005 ), #138, 'distance_accuracy_value', 'NONE');
#6 = PERSON_AND_ORGANIZATION ( #143, #72 ) ;
#7 = APPROVAL_ROLE ( '' ) ;
#8 = ADVANCED_FACE ( 'NONE', ( #118 ), #78, .T. ) ;
#9 = LOCAL_TIME ( 14, 11, 8.000000000000000000, #24 ) ;
#10 = APPROVAL_STATUS ( 'not_yet_approved' ) ;
#11 = DIRECTION ( 'NONE',  ( 1.000000000000000000, 0.0000000000000000000, -0.0000000000000000000 ) ) ;
#12 = CIRCLE ( 'NONE', #36, 15.00000000000000000 ) ;
#13 = DIRECTION ( 'NONE',  ( 0.0000000000000000000, 0.0000000000000000000, 1.000000000000000000 ) ) ;
#14 = PLANE ( 'NONE',  #54 ) ;
#15 = DATE_AND_TIME ( #160, #1 ) ;
#16 = FACE_OUTER_BOUND ( 'NONE', #73, .T. ) ;
#17 = EDGE_LOOP ( 'NONE', ( #38, #129, #174, #106 ) ) ;
#18 = SECURITY_CLASSIFICATION_LEVEL ( 'unclassified' ) ;
#19 = APPROVAL ( #153, 'UNSPECIFIED' ) ;
#20 = DATE_AND_TIME ( #50, #140 ) ;
#21 = DATE_TIME_ROLE ( 'creation_date' ) ;
#22 = EDGE_LOOP ( 'NONE', ( #59, #27 ) ) ;
#23 = DIRECTION ( 'NONE',  ( 0.0000000000000000000, 0.0000000000000000000, 1.000000000000000000 ) ) ;
#24 = COORDINATED_UNIVERSAL_TIME_OFFSET ( 5, 0, .BEHIND. ) ;
#25 = PERSON_AND_ORGANIZATION ( #143, #72 ) ;
#26 = CC_DESIGN_PERSON_AND_ORGANIZATION_ASSIGNMENT ( #25, #126, ( #113 ) ) ;
#27 = ORIENTED_EDGE ( 'NONE', *, *, #124, .F. ) ;
#28 = MECHANICAL_CONTEXT ( 'NONE', #4, 'mechanical' ) ;
#29 = VERTEX_POINT ( 'NONE', #62 ) ;
#30 = CC_DESIGN_SECURITY_CLASSIFICATION ( #68, ( #120 ) ) ;
#31 = CARTESIAN_POINT ( 'NONE',  ( 0.0000000000000000000, 0.0000000000000000000, -1.649999999999999900 ) ) ;
#32 = DIRECTION ( 'NONE',  ( -0.0000000000000000000, -0.0000000000000000000, -1.000000000000000000 ) ) ;
#33 = DIRECTION ( 'NONE',  ( 0.0000000000000000000, 0.0000000000000000000, 1.000000000000000000 ) ) ;
#34 = FACE_OUTER_BOUND ( 'NONE', #22, .T. ) ;
#35 = CC_DESIGN_APPROVAL ( #163, ( #120 ) ) ;
#36 = AXIS2_PLACEMENT_3D ( 'NONE', #170, #79, #159 ) ;
#37 = COORDINATED_UNIVERSAL_TIME_OFFSET ( 5, 0, .BEHIND. ) ;
#38 = ORIENTED_EDGE ( 'NONE', *, *, #122, .F. ) ;
#39 = CARTESIAN_POINT ( 'NONE',  ( 0.0000000000000000000, 0.0000000000000000000, 0.0000000000000000000 ) ) ;
#40 = CALENDAR_DATE ( 2019, 28, 1 ) ;
#41 = CC_DESIGN_PERSON_AND_ORGANIZATION_ASSIGNMENT ( #94, #45, ( #120 ) ) ;
#42 = COORDINATED_UNIVERSAL_TIME_OFFSET ( 5, 0, .BEHIND. ) ;
#43 = ORIENTED_EDGE ( 'NONE', *, *, #90, .T. ) ;
#44 = PERSON_AND_ORGANIZATION_ROLE ( 'creator' ) ;
#45 = PERSON_AND_ORGANIZATION_ROLE ( 'creator' ) ;
#46 = ADVANCED_FACE ( 'NONE', ( #34 ), #14, .F. ) ;
#47 = AXIS2_PLACEMENT_3D ( 'NONE', #92, #13, #119 ) ;
#48 = CC_DESIGN_DATE_AND_TIME_ASSIGNMENT ( #20, #88, ( #68 ) ) ;
#49 = DIRECTION ( 'NONE',  ( 0.0000000000000000000, 0.0000000000000000000, 1.000000000000000000 ) ) ;
#50 = CALENDAR_DATE ( 2019, 28, 1 ) ;
#51 = CIRCLE ( 'NONE', #137, 15.00000000000000000 ) ;
#52 = CARTESIAN_POINT ( 'NONE',  ( 15.00000000000000000, 1.836970198721029600E-015, 1.649999999999999900 ) ) ;
#53 = DIRECTION ( 'NONE',  ( -1.000000000000000000, 0.0000000000000000000, 0.0000000000000000000 ) ) ;
#54 = AXIS2_PLACEMENT_3D ( 'NONE', #155, #33, #11 ) ;
#55 = CIRCLE ( 'NONE', #47, 15.00000000000000000 ) ;
#56 = PERSON_AND_ORGANIZATION ( #143, #72 ) ;
#57 = AXIS2_PLACEMENT_3D ( 'NONE', #39, #86, #142 ) ;
#58 =( NAMED_UNIT ( * ) PLANE_ANGLE_UNIT ( ) SI_UNIT ( $, .RADIAN. ) );
#59 = ORIENTED_EDGE ( 'NONE', *, *, #67, .F. ) ;
#60 = APPROVAL_DATE_TIME ( #99, #19 ) ;
#61 = APPROVAL_DATE_TIME ( #103, #163 ) ;
#62 = CARTESIAN_POINT ( 'NONE',  ( -15.00000000000000000, 0.0000000000000000000, -1.649999999999999900 ) ) ;
#63 = DATE_AND_TIME ( #107, #9 ) ;
#64 = CARTESIAN_POINT ( 'NONE',  ( 15.00000000000000000, 1.836970198721029600E-015, -1.649999999999999900 ) ) ;
#65 = CARTESIAN_POINT ( 'NONE',  ( 0.0000000000000000000, 0.0000000000000000000, 1.649999999999999900 ) ) ;
#66 = VERTEX_POINT ( 'NONE', #146 ) ;
#67 = EDGE_CURVE ( 'NONE', #29, #100, #51, .T. ) ;
#68 = SECURITY_CLASSIFICATION ( '', '', #18 ) ;
#69 = CYLINDRICAL_SURFACE ( 'NONE', #135, 15.00000000000000000 ) ;
#70 = EDGE_CURVE ( 'NONE', #66, #100, #85, .T. ) ;
#71 = CARTESIAN_POINT ( 'NONE',  ( -15.00000000000000000, 0.0000000000000000000, 1.649999999999999900 ) ) ;
#72 = ORGANIZATION ( 'UNSPECIFIED', 'UNSPECIFIED', '' ) ;
#73 = EDGE_LOOP ( 'NONE', ( #132, #167, #123, #141 ) ) ;
#74 = APPROVAL_ROLE ( '' ) ;
#75 = CALENDAR_DATE ( 2019, 28, 1 ) ;
#76 = COORDINATED_UNIVERSAL_TIME_OFFSET ( 5, 0, .BEHIND. ) ;
#77 = LOCAL_TIME ( 14, 11, 8.000000000000000000, #97 ) ;
#78 = PLANE ( 'NONE',  #82 ) ;
#79 = DIRECTION ( 'NONE',  ( 0.0000000000000000000, 0.0000000000000000000, 1.000000000000000000 ) ) ;
#80 = PRODUCT_RELATED_PRODUCT_CATEGORY ( 'detail', '', ( #113 ) ) ;
#81 = CIRCLE ( 'NONE', #116, 15.00000000000000000 ) ;
#82 = AXIS2_PLACEMENT_3D ( 'NONE', #65, #105, #91 ) ;
#83 = PERSON_AND_ORGANIZATION ( #143, #72 ) ;
#84 = APPROVAL ( #10, 'UNSPECIFIED' ) ;
#85 = LINE ( 'NONE', #52, #162 ) ;
#86 = DIRECTION ( 'NONE',  ( 0.0000000000000000000, 0.0000000000000000000, 1.000000000000000000 ) ) ;
#87 = CC_DESIGN_APPROVAL ( #19, ( #130 ) ) ;
#88 = DATE_TIME_ROLE ( 'classification_date' ) ;
#89 = LINE ( 'NONE', #121, #150 ) ;
#90 = EDGE_CURVE ( 'NONE', #147, #66, #81, .T. ) ;
#91 = DIRECTION ( 'NONE',  ( 1.000000000000000000, 0.0000000000000000000, -0.0000000000000000000 ) ) ;
#92 = CARTESIAN_POINT ( 'NONE',  ( 0.0000000000000000000, 0.0000000000000000000, -1.649999999999999900 ) ) ;
#93 = MANIFOLD_SOLID_BREP ( 'Boss-Extrude1', #175 ) ;
#94 = PERSON_AND_ORGANIZATION ( #143, #72 ) ;
#95 = PERSON_AND_ORGANIZATION ( #143, #72 ) ;
#96 = CYLINDRICAL_SURFACE ( 'NONE', #101, 15.00000000000000000 ) ;
#97 = COORDINATED_UNIVERSAL_TIME_OFFSET ( 5, 0, .BEHIND. ) ;
#98 = APPROVAL_PERSON_ORGANIZATION ( #95, #84, #7 ) ;
#99 = DATE_AND_TIME ( #40, #77 ) ;
#100 = VERTEX_POINT ( 'NONE', #64 ) ;
#101 = AXIS2_PLACEMENT_3D ( 'NONE', #115, #117, #169 ) ;
#102 = PERSON_AND_ORGANIZATION_ROLE ( 'design_supplier' ) ;
#103 = DATE_AND_TIME ( #75, #165 ) ;
#104 = ORIENTED_EDGE ( 'NONE', *, *, #122, .T. ) ;
#105 = DIRECTION ( 'NONE',  ( 0.0000000000000000000, 0.0000000000000000000, 1.000000000000000000 ) ) ;
#106 = ORIENTED_EDGE ( 'NONE', *, *, #133, .F. ) ;
#107 = CALENDAR_DATE ( 2019, 28, 1 ) ;
#108 =( GEOMETRIC_REPRESENTATION_CONTEXT ( 3 ) GLOBAL_UNCERTAINTY_ASSIGNED_CONTEXT ( ( #5 ) ) GLOBAL_UNIT_ASSIGNED_CONTEXT ( ( #138, #58, #151 ) ) REPRESENTATION_CONTEXT ( 'NONE', 'WORKASPACE' ) );
#109 = APPROVAL_PERSON_ORGANIZATION ( #149, #163, #168 ) ;
#110 = APPLICATION_CONTEXT ( 'configuration controlled 3d designs of mechanical parts and assemblies' ) ;
#111 = APPLICATION_PROTOCOL_DEFINITION ( 'international standard', 'config_control_design', 1994, #4 ) ;
#112 = PERSON_AND_ORGANIZATION ( #143, #72 ) ;
#113 = PRODUCT ( 'Web Model 45462_45462', 'Web Model 45462_45462', '', ( #28 ) ) ;
#114 = APPROVAL_STATUS ( 'not_yet_approved' ) ;
#115 = CARTESIAN_POINT ( 'NONE',  ( 0.0000000000000000000, 0.0000000000000000000, 1.649999999999999900 ) ) ;
#116 = AXIS2_PLACEMENT_3D ( 'NONE', #148, #23, #131 ) ;
#117 = DIRECTION ( 'NONE',  ( -0.0000000000000000000, -0.0000000000000000000, -1.000000000000000000 ) ) ;
#118 = FACE_OUTER_BOUND ( 'NONE', #2, .T. ) ;
#119 = DIRECTION ( 'NONE',  ( 1.000000000000000000, 0.0000000000000000000, 0.0000000000000000000 ) ) ;
#120 = PRODUCT_DEFINITION_FORMATION_WITH_SPECIFIED_SOURCE ( 'ANY', '', #113, .NOT_KNOWN. ) ;
#121 = CARTESIAN_POINT ( 'NONE',  ( -15.00000000000000000, 0.0000000000000000000, 1.649999999999999900 ) ) ;
#122 = EDGE_CURVE ( 'NONE', #66, #147, #12, .T. ) ;
#123 = ORIENTED_EDGE ( 'NONE', *, *, #133, .T. ) ;
#124 = EDGE_CURVE ( 'NONE', #100, #29, #55, .T. ) ;
#125 = PRODUCT_DEFINITION_SHAPE ( 'NONE', 'NONE',  #130 ) ;
#126 = PERSON_AND_ORGANIZATION_ROLE ( 'design_owner' ) ;
#127 = ADVANCED_FACE ( 'NONE', ( #157 ), #96, .T. ) ;
#128 = CC_DESIGN_PERSON_AND_ORGANIZATION_ASSIGNMENT ( #83, #156, ( #68 ) ) ;
#129 = ORIENTED_EDGE ( 'NONE', *, *, #70, .T. ) ;
#130 = PRODUCT_DEFINITION ( 'UNKNOWN', '', #120, #154 ) ;
#131 = DIRECTION ( 'NONE',  ( 1.000000000000000000, 0.0000000000000000000, 0.0000000000000000000 ) ) ;
#132 = ORIENTED_EDGE ( 'NONE', *, *, #70, .F. ) ;
#133 = EDGE_CURVE ( 'NONE', #147, #29, #89, .T. ) ;
#134 = CARTESIAN_POINT ( 'NONE',  ( 0.0000000000000000000, 0.0000000000000000000, 1.649999999999999900 ) ) ;
#135 = AXIS2_PLACEMENT_3D ( 'NONE', #134, #173, #53 ) ;
#136 = APPROVAL_PERSON_ORGANIZATION ( #112, #19, #74 ) ;
#137 = AXIS2_PLACEMENT_3D ( 'NONE', #31, #49, #158 ) ;
#138 =( LENGTH_UNIT ( ) NAMED_UNIT ( * ) SI_UNIT ( .MILLI., .METRE. ) );
#139 = SHAPE_DEFINITION_REPRESENTATION ( #125, #152 ) ;
#140 = LOCAL_TIME ( 14, 11, 8.000000000000000000, #37 ) ;
#141 = ORIENTED_EDGE ( 'NONE', *, *, #67, .T. ) ;
#142 = DIRECTION ( 'NONE',  ( 1.000000000000000000, 0.0000000000000000000, 0.0000000000000000000 ) ) ;
#143 = PERSON ( 'UNSPECIFIED', 'UNSPECIFIED', 'UNSPECIFIED', ('UNSPECIFIED'), ('UNSPECIFIED'), ('UNSPECIFIED') ) ;
#144 = ADVANCED_FACE ( 'NONE', ( #16 ), #69, .T. ) ;
#145 = APPROVAL_DATE_TIME ( #15, #84 ) ;
#146 = CARTESIAN_POINT ( 'NONE',  ( 15.00000000000000000, 1.836970198721029600E-015, 1.649999999999999900 ) ) ;
#147 = VERTEX_POINT ( 'NONE', #71 ) ;
#148 = CARTESIAN_POINT ( 'NONE',  ( 0.0000000000000000000, 0.0000000000000000000, 1.649999999999999900 ) ) ;
#149 = PERSON_AND_ORGANIZATION ( #143, #72 ) ;
#150 = VECTOR ( 'NONE', #172, 1000.000000000000000 ) ;
#151 =( NAMED_UNIT ( * ) SI_UNIT ( $, .STERADIAN. ) SOLID_ANGLE_UNIT ( ) );
#152 = ADVANCED_BREP_SHAPE_REPRESENTATION ( 'Web Model 45462_45462', ( #93, #57 ), #108 ) ;
#153 = APPROVAL_STATUS ( 'not_yet_approved' ) ;
#154 = DESIGN_CONTEXT ( 'detailed design', #110, 'design' ) ;
#155 = CARTESIAN_POINT ( 'NONE',  ( 0.0000000000000000000, 0.0000000000000000000, -1.649999999999999900 ) ) ;
#156 = PERSON_AND_ORGANIZATION_ROLE ( 'classification_officer' ) ;
#157 = FACE_OUTER_BOUND ( 'NONE', #17, .T. ) ;
#158 = DIRECTION ( 'NONE',  ( 1.000000000000000000, 0.0000000000000000000, 0.0000000000000000000 ) ) ;
#159 = DIRECTION ( 'NONE',  ( 1.000000000000000000, 0.0000000000000000000, 0.0000000000000000000 ) ) ;
#160 = CALENDAR_DATE ( 2019, 28, 1 ) ;
#161 = CC_DESIGN_APPROVAL ( #84, ( #68 ) ) ;
#162 = VECTOR ( 'NONE', #32, 1000.000000000000000 ) ;
#163 = APPROVAL ( #114, 'UNSPECIFIED' ) ;
#164 = APPLICATION_PROTOCOL_DEFINITION ( 'international standard', 'config_control_design', 1994, #110 ) ;
#165 = LOCAL_TIME ( 14, 11, 8.000000000000000000, #76 ) ;
#166 = CC_DESIGN_DATE_AND_TIME_ASSIGNMENT ( #63, #21, ( #130 ) ) ;
#167 = ORIENTED_EDGE ( 'NONE', *, *, #90, .F. ) ;
#168 = APPROVAL_ROLE ( '' ) ;
#169 = DIRECTION ( 'NONE',  ( -1.000000000000000000, 0.0000000000000000000, 0.0000000000000000000 ) ) ;
#170 = CARTESIAN_POINT ( 'NONE',  ( 0.0000000000000000000, 0.0000000000000000000, 1.649999999999999900 ) ) ;
#171 = CC_DESIGN_PERSON_AND_ORGANIZATION_ASSIGNMENT ( #6, #44, ( #130 ) ) ;
#172 = DIRECTION ( 'NONE',  ( -0.0000000000000000000, -0.0000000000000000000, -1.000000000000000000 ) ) ;
#173 = DIRECTION ( 'NONE',  ( -0.0000000000000000000, -0.0000000000000000000, -1.000000000000000000 ) ) ;
#174 = ORIENTED_EDGE ( 'NONE', *, *, #124, .T. ) ;
#175 = CLOSED_SHELL ( 'NONE', ( #127, #144, #8, #46 ) ) ;
ENDSEC;
END-ISO-10303-21;
